Cifra Club

Gozar Na Boca

MC Timbu

Cifra: Principal (violão e guitarra)
tom: Eb
[Intro]

E|-4-4-3-4-4-4-4-3-3-1-3-3-1-3-3-3-3-1-1---------4-4-3-4-4-4-4-3-3-1-1-1-1-----1-1-1-----4-4-3-|
B|---------------------------------------4-4-1-4---------------------------3-3-------4---------|
G|-------------------------------------------------------------------------------------3-------|
D|---------------------------------------------------------------------------------------------|
A|---------------------------------------------------------------------------------------------|
E|---------------------------------------------------------------------------------------------|

E|-4-4-3-4-4-4-4-3-3-1-3-3-1-3-3-3-3-1-1---------4-4-3-4-4-4-4-3-3-1-1-1-1-----1-1-1-----1-1-4-|
B|---------------------------------------4-4-1-4---------------------------3-3-------4---------|
G|-------------------------------------------------------------------------------------3-------|
D|---------------------------------------------------------------------------------------------|
A|---------------------------------------------------------------------------------------------|
E|---------------------------------------------------------------------------------------------|

D#              Cm
Eu estava com o saco cheio de dor
  D#                         Cm
O pau quase estourando de tanto que ela roçou
        Fm          Bb
Queria  mais, tchururu
        Fm          Bb
Me satisfaz, tchururu

 D#             Cm
Agora que já tô cheio de tesão
 D#                        Cm
Mama minha piroca, sente a minha ereção
          Fm         Bb
Mas vê se faz, tchururu
             Fm         Bb
Um boquete sagaz, tchururu

               G#              Bb
     Eu quero mais é gozar na boca
               D#   Dm         Cm             Bb
     Eu quero mais é gozar na boca, eu quero mais
               G#              Bb
     Eu quero mais é gozar na boca
                           G#
     E jogar aquele leite quente, no dente

00:00 / 00:00
Outros vídeos desta música
Repetir
Outros vídeos desta música
Composição de MC Timbu
Colaboração e revisão:
  • Rafael Rosario
246 exibições
    • ½ Tom
    • A
    • Bb
    • B
    • C
    • Db
    • D
    • Eb
    • E
    • F
    • F#
    • G
    • Ab
  • Adicionar à lista

    0 comentários

    Ver todos os comentários

    Conseguiu tocar?

    0 Tocaram 0 Ainda não

    Grave um vídeo tocando Gozar Na Boca e nos envie!

    Entre para oCifra Club PRO

    Tenha acesso a benefícios exclusivos no App e no Site

    • Chega de anúncios

    • Prioridade de compra em lançamentos

    • Mais recursos no app do Afinador

    • Atendimento Prioritário

    • Descontos nos produtos Cifra Club

    • Ajude a produzir mais conteúdo

    00:00 / 00:00

    Cifra Club Pro

    Aproveite o Cifra Club com benefícios exclusivos e sem anúncios
    Cifra Club Pro
    Aproveite o Cifra Club com benefícios exclusivos e sem anúncios
    OK