Cifra Club

I Need a Woman

McFly

Cifra: Principal
exibições 11.645
Tom: E
Intro:

E|-----------------------------
B|-----------------------------
G|-----------------------------
D|-----------------------------
A|-------2------------2--------
E|0*-2s4---2-4-0*-2s4---2-4-0*-

( E )
I've been searching for some
Love and affection but there's
Nobody giving me that kind of attention
     A
I'm alone
          E
Oh, I'm alone
( E )
Can't help thinking that there's
Somebody missing who should
Hold me and please me 'til I'm
Tired of her kissing
     A
I'm alone
          E
Oh, I'm alone

A B
But when it gets to midnight
A B
I'm in my bed alone
A B
You're all I want
A B
You're all I need
A B
It's cold in the night
But I'm looking for the heat

     E            G#m
Baby I, I need a woman
         A
Not any woman
      E                 B
But a woman who needs me too
              E
So how about you?

E|-----------------------------
B|-----------------------------
G|-----------------------------
D|-----------------------------
A|-------2------------2--------
E|0*-2s4---2-4-0*-2s4---2-4-0*-


( E )
Songs on the radio are
Just carbon copies of the
Way that I'm feeling after
Five cups of coffee
     A
I'm alone
          E
Oh, I'm alone

A B
But when it gets to sunrise
A B
I'm waking up alone
A B
You're all I want
A B
You're all I need
A B
This bed is burning up 99 degrees

      E            G#m
Honey I, I need a woman
         A
Not any woman
      E                 B
But a woman who needs me too
E            G#m
I, I need a woman
         A
Not any woman
      E                 B
But a woman who needs me too
      E
So how about you?
Riff 3x:

E|-----------------------------
B|-----------------------------
G|-----------------------------
D|-----------------------------
A|-------2------------2--------
E|0*-2s4---2-4-0*-2s4---2-4-0*-

           E            G#m
Believe me I, I need a woman
         A
Not any woman
      E                 B
But a woman who needs me too
E            B
I, I need a woman
         A
Not any woman
      E                 B
But a woman who needs me too
              E
So how about you?
Riff 3x:

E|-----------------------------
B|-----------------------------
G|-----------------------------
D|-----------------------------
A|-------2------------2--------
E|0*-2s4---2-4-0*-2s4---2-4-0*-
Acordes para:
    Colaboração e revisão:

    0 comentários

      mostrar mais comentários

      Conseguiu tocar?

      6tocaram1ainda não

      Grave um vídeo tocando I Need a Woman e mande pra gente!

      00:00 / 00:00
      outros vídeos desta música
      repetirqualidadeautomática
      Outro vídeos desta música
        00:00 / 00:00
        automática
        OK