Cifra Club

Black Friday Cifra Club

Mad Racer

Mega Driver

Tab de baixo: Principal
(intro)

E||-------8-----------6---------3-----
A||-----6---6-------6-------5-1---3~--  
G||-5-5-------5-5-5-----3-3-----------
D||-----------------------------------  

(riff 1)
E||-------------------
A||-3...-6...-1...-3--  
G||-------------------
D||-------------------

(solo de Baixo)
E||-----------------------
A||-3-3-3-3-5-6-6-6-6-5---  (2x)
G||-----------------------
D||--5-5-5-5-7-8-8-8-8-7--

E||---------------------------------------
A||-8--8--8--8--10--11--11--11--11--10----  (2x)
G||---------------------------------------
D||--10-10-10-10--12--13--13--13--13--12--
00:00 / 00:00
Outros vídeos desta música
Repetir
Outros vídeos desta música
Composição de Top Gear
Colaboração e revisão:
  • felipe pereira
567 exibições

0 comentários

Ver todos os comentários

Conseguiu tocar?

0 Tocaram 0 Ainda não

Grave um vídeo tocando Mad Racer e nos envie!

Entre para oCifra Club PRO

Tenha acesso a benefícios exclusivos no App e no Site

  • Chega de anúncios

  • Prioridade de compra em lançamentos

  • Mais recursos no app do Afinador

  • Atendimento Prioritário

  • Descontos nos produtos Cifra Club

  • Ajude a produzir mais conteúdo

00:00 / 00:00

Cifra Club Pro

Aproveite o Cifra Club com benefícios exclusivos e sem anúncios
Cifra Club Pro
Aproveite o Cifra Club com benefícios exclusivos e sem anúncios
OK