Cifra Club

Aprenda

Sweating Bullets

Megadeth

Cifra: Principal (violão e guitarra)
tom: A
Intro


E|---------------------------------------------------------------------------------|
B|---------------------------------------------------------------------------------|
G|-------------------------------------------7--4----------------------------------|
D|----4--5--9--8--5--4--4-5--- -4--5---9--8--------5----4--5--9--8--5--4--4--5-----|
A|-7-------------------------7-----------------------7-------------------------7~~-|
E|---------------------------------------------------------------------------------|

E|------------------------------------------------------|
B|----------------------------------------------7--4----|
G|-------4--7--6----4--3--3h4----------4--7--6--------4-|
D|-5--7------------------------5----7-------------------|
A|------------------------------------------------------|
E|------------------------------------------------------|

E|--------------------------------|
B|--------------------------------|
G|-------4--7--6----4--3--3h4-----|
D|-5--7------------------------5--|
A|--------------------------------|
E|--------------------------------|

Verse

  BbA E                    BbA E

        Hello me meet the        in my misfits way of life
        real me

E|----------------------------------------------------------|
B|----------------------------------------------------------|
G|----------------------------------------------------------|
D|-----9------------------------9---------------------------|
A|-8-7-7--------------------8-7-7---------------------------|
E|-6-5----------------------6-5-----------------------------|

  BbA E                          BbA E

        A dark black past is my        most valued possesion

E|----------------------------------------------------------------|
B|----------------------------------------------------------------|
G|----------------------------------------------------------------|
D|-----9------------------------------9---------------------------|
A|-8-7-7--------------------------8-7-7---------------------------|
E|-6-5----------------------------6-5-----------------------------|

  BbA E                            BbA E

        Hind sight is always             but lookin' back it's
        twenty, twenty                   still a bit fuzzy

E|--------------------------------------------------------------|
B|--------------------------------------------------------------|
G|--------------------------------------------------------------|
D|-----9--------------------------------9-----------------------|
A|-8-7-7----------------------------8-7-7-----------------------|
E|-6-5------------------------------6-5-------------------------|

BbA E                            BbA E

        Speak of mutually assured       Nice story tell it to
        destruction                     Readers Digest

                                                             Pick
                                                             Slide

E|------------------------------------------------------------------|
B|------------------------------------------------------------------|
G|------------------------------------------------------------------|
D|-----9--------------------------------9-----------------------x\--|
A|-8-7-7----------------------------8-7-7-----------------------x\--|
E|-6-5------------------------------6-5-----------------------------|

Chorus

  E  G  A  G     Bb         A   G      A

  Feeling         parnoid          true    enemy

  Hold Bend------------   Hold Bend--------------
Gtr 1
E|----12--12--12--12--12-|-----11---11--11--11--11--|
B|-15b----15--15--15--15-|-14b------14--14--14--14--|
G|-----------------------|--------------------------|
D|-----------------------|--------------------------|
A|-----------------------|--------------------------|
E|-----------------------|--------------------------|
                                                   |
Gtr 2                                              |
  Pm-----------                 Pm---              |
E|-----------------------|--------------------------|
B|-----------------------|--------------------------|
G|----------------3------|--------------------------|
D|-------2--------1------|---2----------2-----------|
A|-2--5--0--5--5---------|---0---5---5--0-----------|
E|-0--3-----3--3---------|-------3---3--------------|

  E  G  A  G     Bb        A   G       F

  or false friend                             Anx-

  Hold Bend-------------   Hold Bend-------------

E|-----10--10--10--10--10-|-----9---9---9---9---9----|
B|-13b-----13--13--13--13-|-12b-----12--12--12--12---|
G|------------------------|--------------------------|
D|------------------------|--------------------------|
A|------------------------|--------------------------|
E|------------------------|--------------------------|
                                                    |
                                                    |
  Pm-----------                Pm---                |
E|------------------------|--------------------------|
B|------------------------|--------------------------|
G|----------------3-------|--------------------------|
D|-------2--------1-------|-2------------------------|
A|-2--5--0--5--5----------|-0---5---5---3------------|
E|-0--3-----3--3----------|-----3---3---1------------|

  E  G  A  G     Bb         A   G       A

  iety's attacking         me and my

  Hold Bend-------------   Hold Bend-------------

E|-----8---8---8---8---8--|-----7---7---7---7---7----|
B|-11b-----11--11--11--11-|-10b-----10--10--10--10---|
G|------------------------|--------------------------|
D|------------------------|--------------------------|
A|------------------------|--------------------------|
E|------------------------|--------------------------|
                                                    |
Gtr 2                                               |
  Pm-----------                  Pm----             |
E|------------------------|--------------------------|
B|------------------------|--------------------------|
G|----------------3-------|--------------------------|
D|-------2--------1-------|---2----------2-----------|
A|-2--5--0--5--5----------|---0---5---5--0-----------|
E|-0--3-----3--3----------|-------3---3--------------|

  A   G  A    F  A

  air is getting thin

  Hold Bend-------

E|----6--6--6--6--6---------|-------------------------|
B|-9b----9--9--9--9---------|-------------------------|
G|-------------------2/4--0-|-----Rest----------------|
D|--------------------------|-------------------------|
A|--------------------------|-------------------------|
E|--------------------------|-------------------------|
                                                     |
                                                     |
  Pm---                                              |
E|--------------------------|-------------------------|
B|--------------------------|-----Rest----------------|
G|--------------------------|-------------------------|
D|-2------2-----------------|-------------------------|
A|-0---5--0-----3--2--------|-------------------------|
E|-----3-----3--1--0--------|-------------------------|

  E  G  A  G     Bb         A   G      A

  I'm in trouble          forthe things I

  Hold Bend------------   Hold Bend--------------
Gtr 1
E|----12--12--12--12--12-|-----11---11--11--11--11--|
B|-15b----15--15--15--15-|-14b------14--14--14--14--|
G|-----------------------|--------------------------|
D|-----------------------|--------------------------|
A|-----------------------|--------------------------|
E|-----------------------|--------------------------|
                                                   |
Gtr 2                                              |
  Pm-----------                 Pm---              |
E|-----------------------|--------------------------|
B|-----------------------|--------------------------|
G|----------------3------|--------------------------|
D|-------2--------1------|---2----------2-----------|
A|-2--5--0--5--5---------|---0---5---5--0-----------|
E|-0--3-----3--3---------|-------3---3--------------|

  E  G  A  G     Bb        A   G       F

  haven't got to yet                           I'm

  Hold Bend-------------   Hold Bend-------------

E|-----10--10--10--10--10-|-----9---9---9---9---9----|
B|-13b-----13--13--13--13-|-12b-----12--12--12--12---|
G|------------------------|--------------------------|
D|------------------------|--------------------------|
A|------------------------|--------------------------|
E|------------------------|--------------------------|
                                                    |
                                                    |
  Pm-----------                Pm---                |
E|------------------------|--------------------------|
B|------------------------|--------------------------|
G|----------------3-------|--------------------------|
D|-------2--------1-------|-2------------------------|
A|-2--5--0--5--5----------|-0---5---5---3------------|
E|-0--3-----3--3----------|-----3---3---1------------|

  E  G  A  G     Bb         A   G       A

  chomping at the bit                     and my

  Hold Bend-------------   Hold Bend-------------

E|-----8---8---8---8---8--|-----7---7---7---7---7----|
B|-11b-----11--11--11--11-|-10b-----10--10--10--10---|
G|------------------------|--------------------------|
D|------------------------|--------------------------|
A|------------------------|--------------------------|
E|------------------------|--------------------------|
                                                    |
Gtr 2                                               |
  Pm-----------                 Pm----              |
E|------------------------|--------------------------|
B|------------------------|--------------------------|
G|----------------3-------|--------------------------|
D|-------2--------1-------|---2----------2-----------|
A|-2--5--0--5--5----------|---0---5---5--0-----------|
E|-0--3-----3--3----------|-------3---3--------------|

  Bb    A   G        F  E

  palms are getting         wet.

E|-------------------------------|
B|-------------------------------|
G|-------------------------------|
D|-3-----2-----------------------|
A|-1-----0---5--------3--2-------|
E|-----------3--------1--0-------|
                                |
E|-------------------------------|
B|-------------------------------|
G|-------------------------------|
D|-3-----2-----------------------|
A|-1-----0---5--------3--2-------|
E|-----------3--------1--0-------|

  E        D  E

  Sweating Bullets

E|------------------|
B|------------------|
G|-------------7----|
D|-9--------7--9----|
A|-7--------5--7----|
E|------------------|

2nd Verse

  BbA E                            BbA E

        Hello me it's me again           You can subdue but never
                                         tame me

E|------------------------------------------------------------------|
B|------------------------------------------------------------------|
G|------------------------------------------------------------------|
D|-----9--------------------------------9---------------------------|
A|-8-7-7----------------------------8-7-7---------------------------|
E|-6-5------------------------------6-5-----------------------------|


  BbA E                          BbA E

        It gives me a migraine         Thinking down to your
        headache                       Level

E|----------------------------------------------------------------|
B|----------------------------------------------------------------|
G|----------------------------------------------------------------|
D|-----9------------------------------9---------------------------|
A|-8-7-7--------------------------8-7-7---------------------------|
E|-6-5----------------------------6-5-----------------------------|

  BbA E                            BbA E

        Yea, just keep on thinking       and stay an inch or two
        it's my fault                    outta kicking distance

E|---------------------------------------------------------------|
B|---------------------------------------------------------------|
G|---------------------------------------------------------------|
D|-----9--------------------------------9------------------------|
A|-8-7-7----------------------------8-7-7------------------------|
E|-6-5------------------------------6-5--------------------------|

BbA E                            BbA E

       Man kind has got to know          His limitations

                                                         Pick
                                                         Slide

E|-------------------------------------------------------------|
B|-------------------------------------------------------------|
G|-------------------------------------------------------------|
D|-----9--------------------------------9------------------x\--|
A|-8-7-7----------------------------8-7-7------------------x\--|
E|-6-5------------------------------6-5------------------------|

2nd Chorus

  E  G  A  G     Bb         A   G      A

  Feeling                 claustrophic

  Hold Bend------------   Hold Bend--------------
Gtr 1
E|----12--12--12--12--12-|-----11---11--11--11--11--|
B|-15b----15--15--15--15-|-14b------14--14--14--14--|
G|-----------------------|--------------------------|
D|-----------------------|--------------------------|
A|-----------------------|--------------------------|
E|-----------------------|--------------------------|
                                                   |
Gtr 2                                              |
  Pm-----------                 Pm---              |
E|-----------------------|--------------------------|
B|-----------------------|--------------------------|
G|----------------3------|--------------------------|
D|-------2--------1------|---2----------2-----------|
A|-2--5--0--5--5---------|---0---5---5--0-----------|
E|-0--3-----3--3---------|-------3---3--------------|

  E  G  A  G     Bb        A   G       F

  like the                 walls are closing in

  Hold Bend-------------   Hold Bend-------------

E|-----10--10--10--10--10-|-----9---9---9---9---9----|
B|-13b-----13--13--13--13-|-12b-----12--12--12--12---|
G|------------------------|--------------------------|
D|------------------------|--------------------------|
A|------------------------|--------------------------|
E|------------------------|--------------------------|
                                                    |
                                                    |
  Pm-----------                Pm---                |
E|------------------------|--------------------------|
B|------------------------|--------------------------|
G|----------------3-------|--------------------------|
D|-------2--------1-------|-2------------------------|
A|-2--5--0--5--5----------|-0---5---5---3------------|
E|-0--3-----3--3----------|-----3---3---1------------|

  E  G  A  G     Bb         A   G       A

  Bloodstains               on my hands      and I

  Hold Bend-------------   Hold Bend-------------

E|-----8---8---8---8---8--|-----7---7---7---7---7----|
B|-11b-----11--11--11--11-|-10b-----10--10--10--10---|
G|------------------------|--------------------------|
D|------------------------|--------------------------|
A|------------------------|--------------------------|
E|------------------------|--------------------------|
                                                    |
Gtr 2                                               |
  Pm-----------                  Pm----             |
E|------------------------|--------------------------|
B|------------------------|--------------------------|
G|----------------3-------|--------------------------|
D|-------2--------1-------|---2----------2-----------|
A|-2--5--0--5--5----------|---0---5---5--0-----------|
E|-0--3-----3--3----------|-------3---3--------------|

  A   G  A    F  A

  don't know where I've been

  Hold Bend-------

E|----6--6--6--6--6------------|-------------------------|
B|-9b----9--9--9--9------------|-------------------------|
G|-------------------2/4--0----|-----Rest----------------|
D|-----------------------------|-------------------------|
A|-----------------------------|-------------------------|
E|-----------------------------|-------------------------|
                                                        |
                                                        |
  Pm---                                                 |
E|-----------------------------|-------------------------|
B|-----------------------------|--Rest-------------------|
G|-----------------------------|-------------------------|
D|-2------2--------------------|-------------------------|
A|-0---5--0-----3--2-----------|-------------------------|
E|-----3-----3--1--0-----------|-------------------------|

  E  G  A  G     Bb         A   G      A

  I'm in trouble          for the things I

  Hold Bend------------   Hold Bend--------------
Gtr 1
E|----12--12--12--12--12-|-----11---11--11--11--11--|
B|-15b----15--15--15--15-|-14b------14--14--14--14--|
G|-----------------------|--------------------------|
D|-----------------------|--------------------------|
A|-----------------------|--------------------------|
E|-----------------------|--------------------------|
                                                   |
Gtr 2                                              |
  Pm-----------                 Pm---              |
E|-----------------------|--------------------------|
B|-----------------------|--------------------------|
G|----------------3------|--------------------------|
D|-------2--------1------|---2----------2-----------|
A|-2--5--0--5--5---------|---0---5---5--0-----------|
E|-0--3-----3--3---------|-------3---3--------------|

  E  G  A  G     Bb        A   G       F

  haven't got to yet                           I'm

  Hold Bend-------------   Hold Bend-------------

E|-----10--10--10--10--10-|-----9---9---9---9---9----|
B|-13b-----13--13--13--13-|-12b-----12--12--12--12---|
G|------------------------|--------------------------|
D|------------------------|--------------------------|
A|------------------------|--------------------------|
E|------------------------|--------------------------|
                                                    |
                                                    |
  Pm-----------                Pm---                |
E|------------------------|--------------------------|
B|------------------------|--------------------------|
G|----------------3-------|--------------------------|
D|-------2--------1-------|-2------------------------|
A|-2--5--0--5--5----------|-0---5---5---3------------|
E|-0--3-----3--3----------|-----3---3---1------------|

  E  G  A  G     Bb         A   G       A

  Shapening the axe                         and my

  Hold Bend-------------   Hold Bend-------------

E|-----8---8---8---8---8--|-----7---7---7---7---7----|
B|-11b-----11--11--11--11-|-10b-----10--10--10--10---|
G|------------------------|--------------------------|
D|------------------------|--------------------------|
A|------------------------|--------------------------|
E|------------------------|--------------------------|
                                                    |
Gtr 2                                               |
  Pm-----------                  Pm----             |
E|------------------------|--------------------------|
B|------------------------|--------------------------|
G|----------------3-------|--------------------------|
D|-------2--------1-------|---2----------2-----------|
A|-2--5--0--5--5----------|---0---5---5--0-----------|
E|-0--3-----3--3----------|-------3---3--------------|

  Bb    A   G        F  E

  palms are getting         wet.

E|-------------------------------|
B|-------------------------------|
G|-------------------------------|
D|-3-----2-----------------------|
A|-1-----0---5--------3--2-------|
E|-----------3--------1--0-------|
                                |
E|-------------------------------|
B|-------------------------------|
G|-------------------------------|
D|-3-----2-----------------------|
A|-1-----0---5--------3--2-------|
E|-----------3--------1--0-------|

  E        D  E

  Sweating Bullets

E|------------------|
B|------------------|
G|-------------7----|
D|-9--------7--9----|
A|-7--------5--7----|
E|------------------|

1st Bridge

  F           E   F       E         E  G A

Pm----------------------------------

E|-------------------------------------------|
B|-------------------------------------------|
G|-------------------------------------------|
D|-------------2-----------2---------2-------|
A|-3-3-3-3-3-3-2---3-3-3---2---3-3-3-2--5-7--|
E|-1-1-1-1-1-1-0---1-1-1---0---1-1-1-0--3-5--|

  F           E   F       E         E  G A

  Pm----------------------------------

E|-------------------------------------------|
B|-------------------------------------------|
G|-------------------------------------------|
D|-------------2-----------2---------2-------|
A|-3-3-3-3-3-3-2---3-3-3---2---3-3-3-2--5-7--|
E|-1-1-1-1-1-1-0---1-1-1---0---1-1-1-0--3-5--|

  G                       Bb            A F

  Pm----------     Pm---   Pm-----------

E|-------------------------------------------|
B|-------------------------------------------|
G|-------------------------------------------|
D|-------------------------3-3-3-3-3-3-3-2---|
A|-5-5-5-5-5-5-5---5-5-5---1-1-1-1-1-1-1-0-3-|
E|-3-3-3-3-3-3-3---3-3-3-------------------1-|

  F           E   F       E         E  G A

  Pm----------------------------------

E|-------------------------------------------|
B|-------------------------------------------|
G|-------------------------------------------|
D|-------------2-----------2---------2-------|
A|-3-3-3-3-3-3-2---3-3-3---2---3-3-3-2--5-7--|
E|-1-1-1-1-1-1-0---1-1-1---0---1-1-1-0--3-5--|

  F           E   F       E         E  G A

  Pm----------------------------------

E|-------------------------------------------|
B|-------------------------------------------|
G|-------------------------------------------|
D|-------------2-----------2---------2-------|
A|-3-3-3-3-3-3-2---3-3-3---2---3-3-3-2--5-7--|
E|-1-1-1-1-1-1-0---1-1-1---0---1-1-1-0--3-5--|

  F           E   F       E         E  G A

  Pm----------------------------------

E|-------------------------------------------|
B|-------------------------------------------|
G|-------------------------------------------|
D|-------------2-----------2---------2-------|
A|-3-3-3-3-3-3-2---3-3-3---2---3-3-3-2--5-7--|
E|-1-1-1-1-1-1-0---1-1-1---0---1-1-1-0--3-5--|

  G                       Bb            A F

  Pm----------    Pm---   Pm-----------

E|-------------------------------------------|
B|-------------------------------------------|
G|-------------------------------------------|
D|-------------------------3-3-3-3-3-3-3-2---|
A|-5-5-5-5-5-5-5---5-5-5---1-1-1-1-1-1-1-0-3-|
E|-3-3-3-3-3-3-3---3-3-3-------------------1-|
                                            |
                                            |
Gtr 2                                      |
E|-------------------------------------------|
B|-------------------------------------------|
G|-------------------------------------------|
D|-------------------------------------------|
A|-------------------------------------------|
E|-3~~~~~~~~~~~~~~~~~~~~---5-----------6-5-1-|

Solo:

  F           E   F       E                E  G A

  Pm----------------------------------------

E|--------------------------------------------------|
B|--------------------------------------------------|
G|--------------------------------------------------|
D|-------------2-----------2----------------2-------|
A|-3-3-3-3-3-3-2---3-3-3---2---3-3-3--------2--5-7--|
E|-1-1-1-1-1-1-0---1-1-1---0---1-1-1--------0--3-5--|
                                                   |
                    Rake                           |
  Pm----------------strings-------------------     |
E|------------------------12--------------------|
B|----------------------12----------------------|
G|--------------------12------------------------|
D|-------------7--------------------------------|
A|----------------------------------------------|
E|-0--------------------------------------------|

  F           E   F                     E   F    E   G A

  Pm-----------------------------------------------

E|-------------------------------------|---------------------------------|
B|-------------------------------------|---------------------------------|
G|-------------------------------------|---------------------------------|
D|-------------2-----------------------|-2---------2---------------------|
A|-3-3-3-3-3-3-2---3-3-3---------------|-2---3-3-3-2--5-7----------------|
E|-1-1-1-1-1-1-0---1-1-1---------------|-0---1-1-1-0--3-5----------------|
                                                                        |
  Pm-------------------------------------------------------------       |
                                                                        |
E|-15-14-13-12-------------------------|-------------------------------------|
B|-------------16-15-14-13-------------|-16-15-14-13-------------------------|
G|-------------------------16-15-14-13-|-------------16-15-14-13-------------|
D|-------------------------------------|-------------------------17-16-15-14-|
A|-------------------------------------|-------------------------------------|
E|-------------------------------------|-------------------------------------|

  F           E   F       E         E  G A

  Pm----------------------------------

E|--------------------------------------------------|
B|--------------------------------------------------|
G|--------------------------------------------------|
D|-------------2-----------2---------2--------------|
A|-3-3-3-3-3-3-2---3-3-3---2---3-3-3-2--5-7---------|
E|-1-1-1-1-1-1-0---1-1-1---0---1-1-1-0--3-5---------|
                                                   |
  Pm----------------------------------------       |
                                                   |
E|-------------------------------------|-------------------------------------|
B|-------------------------------------|-------------------------------------|
G|-16-15-14-13-------------------------|-------------------------------------|
D|-------------17-16-15-14-------------|-17-16-15-14-------------------------|
A|-------------------------18-17-16-15-|-------------18-17-16-15-------------|
E|-------------------------------------|-------------------------19-18-17-16-|

  G                                   Bb            A F

  Pm-----------------------------------------------

E|-----------------------------------|--------------------------------|
B|-----------------------------------|--------------------------------|
G|-----------------------------------|--------------------------------|
D|-----------------------------------|-3-3-3-3-3-3-3-2----------------|
A|-5-5-5-5-5-5-5---5-5-5-------------|-1-1-1-1-1-1-1-0-3--------------|
E|-3-3-3-3-3-3-3---3-3-3-------------|-----------------1--------------|
                                                                     |
  Pm------------------       Pm----------------------                |
                                                                     |
E|-----------------------------------|--------------------------------|
B|-----------------------------------|--------------------------------|
G|-----------------------------------|----------9----9-12p10p9--10~---|
D|----------------------------9----9-|-12-9-12----12------------------|
A|----------10----10-12-10-12---12---|--------------------------------|
E|-12-10-12----12--------------------|--------------------------------|

  F           E   F       E         E  G A

  Pm----------------------------------

E|------------------------------------------------------------|
B|------------------------------------------------------------|
G|------------------------------------------------------------|
D|-------------2-----------2---------2------------------------|
A|-3-3-3-3-3-3-2---3-3-3---2---3-3-3-2--5-7-------------------|
E|-1-1-1-1-1-1-0---1-1-1---0---1-1-1-0--3-5-------------------|
                                                            |
  Pm-----------------------------------------------         |
                                                            |
E|---------------------------------------------------------------|
B|---------------------------------------------------------------|
G|-9h10p9----9-10-12p10p9-10p9----9h10p9----9--------------------|
D|--------12-------------------12--------12---12-12-10p9-10p9----|
A|------------------------------------------------------------12-|
E|---------------------------------------------------------------|

  F           E   F       E         E  G A

  Pm----------------------------------

E|---------------------------------------------|
B|---------------------------------------------|
G|---------------------------------------------|
D|-------------2-----------2---------2---------|
A|-3-3-3-3-3-3-2---3-3-3---2---3-3-3-2--5-7----|
E|-1-1-1-1-1-1-0---1-1-1---0---1-1-1-0--3-5----|
                                              |
  Pm---------------------------------------   |
                                              |
E|-------------------------------------------------------------|
B|-------------------------------------------------------------|
G|-------------------------------------------------------------|
D|-9h10p9----9-10-12p10-9h10p9----9----------------------------|
A|--------12-------------------12---12-10-12-10----10----------|
E|----------------------------------------------12----12-10-12-|

  F           E   F       E         E  G A

  Pm----------------------------------

E|-------------------------------------------------|
B|-------------------------------------------------|
G|-------------------------------------------------|
D|-------------2-----------2---------2-------------|
A|-3-3-3-3-3-3-2---3-3-3---2---3-3-3-2--5-7--------|
E|-1-1-1-1-1-1-0---1-1-1---0---1-1-1-0--3-5--------|
                                                  |
  Pm--------------------------------------------- |
                                                  |
E|----------------------------------------------------------------------------------|
B|----------------------------------------------------------------------------------|
G|----------------------------------------------------------------------------------|
D|----------------------------------------------------------------------------------|
A|----------------------------12-12-12-15-15-15-14-14-14-12-12-12-------------------|
E|-12-12-12-15-15-15-14-14-14-------------------------------------15-15-15-14-14-14-|

  G                       Bb            A F

  Pm----------    Pm---   Pm-----------

E|------------------------------------------------|
B|------------------------------------------------|
G|------------------------------------------------|
D|-------------------------3-3-3-3-3-3-3-2--------|
A|-5-5-5-5-5-5-5---5-5-5---1-1-1-1-1-1-1-0-3------|
E|-3-3-3-3-3-3-3---3-3-3-------------------1------|
                                                 |
  Pm----------------------------------------     |
                                                 |
E|-----------------------------------------------------------|
B|-----------------------------------------------------------|
G|-----------------------------------------------------------|
D|-------------------------------------------------------12~-|
A|----------------------------12-12-12-14-14-14-15-15-15-----|
E|-12-12-12-14-14-14-15-15-15--------------------------------|

  F           E   F       E         E  G A

  Pm----------------------------------

E|--------------------------------------------------|
B|--------------------------------------------------|
G|--------------------------------------------------|
D|-------------2-----------2---------2--------------|
A|-3-3-3-3-3-3-2---3-3-3---2---3-3-3-2--5-7---------|
E|-1-1-1-1-1-1-0---1-1-1---0---1-1-1-0--3-5---------|
                                                   |
  Pm--------------------------------------------   |
                                                   |
E|-15----16----17----18-----19----20----21----22----|
B|----14----15----16----17-----18----19----20----21-|
G|--------------------------------------------------|
D|--------------------------------------------------|
A|--------------------------------------------------|
E|--------------------------------------------------|

  F   C   B  G  E           F   C  B   G   E

E|--------------|----------|--------------|---------|
B|--------------|----------|--------------|---------|
G|-10-----------|----------|-10-----------|---------|
D|-10--10--9----|----------|-10--10--9----|---------|
A|-8---10--9--5-|-2--------|-8---10--9--5-|-2-------|
E|-----8---7--3-|-0--------|-----8---7--3-|-0-------|
                                                   |
                                                   |
E|-22b~---------------------------------------------|
B|--------------------------------------------------|
G|--------------------------------------------------|
D|--------------------------------------------------|
A|--------------------------------------------------|
E|--------------------------------------------------|

F   C   B  G  E             F   C   B  G   E         F       F#

E|--------------|----------|--------------|---------|------------|
B|--------------|----------|--------------|---------|------------|
G|-10-----------|----------|-10-----------|---------|------------|
D|-10--10--9----|----------|-10--10--9----|---------|-3-------4--|
A|-8---10--9--5-|-2--------|-8---10--9--5-|-2-------|-3-------4--|
E|-----8---7--3-|-0--------|-----8---7--3-|-0-------|-1-------2--|

E|---------------------------------------------------------------|
B|---------------------------------------------------------------|
G|-Guitar-2-is-out-----------------------------------------------|
D|---------------------------------------------------------------|
A|---------------------------------------------------------------|
E|---------------------------------------------------------------|

2nd Bridge (Play 4 times)


E|----------------------------------------------------------------|
  B*--------------------------------------------------------------*|
G|----------------------------------------------------------------|
D|----------------------------------------------------------------|
  A*5-------4-------3-------2-------1-------0-------0-------------*|
E|---0-2-3---0-2-3---0-2-3---0-2-3---0-2-3---0-2-3---3-2-1-1-1-23-|

E|---------------------|-------------------------------------|
B|---------------------|-------------------------------------|
G|---------------------|-------------------------------------|
D|-6-5-4-3-------------|-------------------------------------|
A|-------------------2-|-Hold-Chord--------------------------|
E|----------4-3-2-1--0-|-------------------------------------|

3rd Verse

  BbA E                            BbA E

        Well me... it's nice             A credit to dementia
        Talkin' to myself

E|------------------------------------------------------------------|
B|------------------------------------------------------------------|
G|------------------------------------------------------------------|
D|-----9--------------------------------9---------------------------|
A|-8-7-7----------------------------8-7-7---------------------------|
E|-6-5------------------------------6-5-----------------------------|

  BbA E                          BbA E

        some day you too will          And smile it's blacktooth
        know my pain                   grin

E|----------------------------------------------------------------|
B|----------------------------------------------------------------|
G|----------------------------------------------------------------|
D|-----9------------------------------9---------------------------|
A|-8-7-7--------------------------8-7-7---------------------------|
E|-6-5----------------------------6-5-----------------------------|

  BbA E                            BbA E

        If the war inside my head         Won't take a day off
                                          I'll be dead

E|---------------------------------------------------------------|
B|----------------
Composição de Dave Mustaine
Colaboração e revisão:
  • Ana Resende
  • Felipe Douglas
  • felipe costa
21.201 exibições
    • ½ Tom
    • A
    • Bb
    • B
    • C
    • Db
    • D
    • Eb
    • E
    • F
    • F#
    • G
    • Ab
  • Adicionar à lista

    0 comentários

    Ver todos os comentários

    Conseguiu tocar?

    7 Tocaram 1 Ainda não

    Grave um vídeo tocando Sweating Bullets e nos envie!

    00:00 / 00:00
    outros vídeos desta música
    repetir qualidade Automático
    Outros vídeos desta música
    00:00 / 00:00
    Automático

    Cifra Club Pro

    Aproveite o Cifra Club com benefícios exclusivos e sem anúncios
    Cifra Club Pro
    Aproveite o Cifra Club com benefícios exclusivos e sem anúncios
    OK