Cifra Club

Trust

Megadeth

Tab de baixo: Principal
exibições 11.637
[Introdução]

Parte 1 de 6
G|----------------------------------------------|
D|-17--14--10--7--7/--17--14--10--12------------|
A|-19--15--12--8--8/--19--15--12--13------------|
E|----------------------------------------------|

Parte 2 de 6
G|----------------------------------------------|
D|-------------------------2--------------------|
A|---------------------3-3---3--3-3-------------|
E|-0-0-0--0-3-0--0-0----------------------------|

G|----------------------------------------------|
D|----------------------------------------------|
A|-0-0-3-0--0-0------0--------------------------|
E|---------------1-1---1--1-1-------------------|

Parte 3 de 6
G|----------------------------------------------|
D|--------------------2-------------------------|
A|----------------3-3---3--3-3--0-0-3-0--0-0----|
E|-0-0-3-0--0-0---------------------------------|

G|----------------------------------------------|
D|----------------------------------------------|
A|-1--1-1-1--1-1-1------------------------------|
E|----------------------------------------------|

Parte 4 de 6
G|----------------------------------------------|
D|----------------------------------------------|
A|----------------3-3-2-3--3-3--0-0-3-0--0-0----|
E|-0-0-3-0--0-0---------------------------------|

G|----------------------------------------------|
D|----------------------------------------------|
A|-----0----------------------------------------|
E|-1-1---1--1-1---------------------------------|

Parte 5 de 6
G|----------------------------------------------|
D|----------------------------------------------|
A|----------------3-3-2-3--3-3--0-0-3-0--0-0----|
E|-0-0-3-0--0-0---------------------------------|

G|----------------------------------------------|
D|----------------------------------------------|
A|----------------------------------------------|
E|-1-1-1-1--1-1-1-1--1--1-1-1-1--1-1-1-1--------|

Parte 6 de 6 (2x) 
G|----------------------------------------------|
D|----------------------------------------------|
A|-----------------3-3-3-3--3-3-3-3--3----------|
E|-0-0-0-0--0-0-0-------------------------------|

G|----------------------------------------------|
D|----------------------------------------------|
A|-0-0-0-0--0-0-0--1-0-1-5-1-3------------------|
E|----------------------------------------------|


[Primeira parte]

Lost in a dream...

Parte 1 de 4
G|----------------------------------------------|
D|----------------------------------------------|
A|-----------------3----------------------------|
E|-0-0-0-0--0-0-0-----0-0-0-0--0-0--5-----------|

G|----------------------------------------------|
D|----------------------------------------------|
A|--------------------------------7-------------|
E|-0-0-0-0--0-0-1---0-0-0-0--0-0----------------|

Parte 2 de 4
G|----------------------------------------------|
D|----------------------------------------------|
A|--------------3-------------------------------|
E|-0-0-0-0--0-0---0-0-7--0-0-5------------------|

G|----------------------------------------------|
D|----------------------------------------------|
A|-------------------------------7--------------|
E|-0-0-0-0--0-0--1--0-0-0-0--0-0----------------|

Parte 3 de 4
G|----------------------------------------------|
D|----------------------------------------------|
A|--------------3-------------------------------|
E|-0-0-0-0--0-0---0-0-0-0--0-0-5----------------|

G|----------------------------------------------|
D|----------------------------------------------|
A|------------------------------7---------------|
E|-0-0-0-0--0-0-1--0-0-0-0--0-0-----------------|

Parte 4 de 4
G|----------------------------------------------|
D|----------------------------------------------|
A|---------------3--------5---------------------|
E|-0-0-0-0--0-0----0-0-7----5--0-0-0-0--0-0-----|

G|----------------------------------------------|
D|----------------------------------------------|
A|----------------------------------------------|
E|-1--1-1-1-1--1-1-1----------------------------|


[Refrão]

My body aches from mistakes...

Parte 1 de 2
G|----------------------------------------------|
D|----------------------------------------------|
A|-----------------3-3-3-3--3-3-3-3--3----------|
E|-0-0-0-0--0-0-0-------------------------------|

G|----------------------------------------------|
D|----------------------------------------------|
A|-0-0-0-0--0-0-0--1-0-1-5-1-3------------------|
E|----------------------------------------------|

Parte 2 de 2
G|----------------------------------------------|
D|----------------------------------------------|
A|-------------3-3-3-3--3-3-3--2--0-0-0-0-------|
E|-0-0-0-0--3-----------------------------------|

G|----------------------------------------------|
D|----------------------------------------------|
A|-0-0-0--1-0-1-5-1-3---------------------------|
E|----------------------------------------------|


[Segunda parte]

Time and again...

Parte 1 de 4
G|----------------------------------------------|
D|----------------------------------------------|
A|-----------------3----------------------------|
E|-0-0-0-0--0-0-0-----0-0-0-0--0-0--5-----------|

G|----------------------------------------------|
D|----------------------------------------------|
A|--------------------------------7-------------|
E|-0-0-0-0--0-0-1---0-0-0-0--0-0----------------|

Parte 2 de 4
G|----------------------------------------------|
D|----------------------------------------------|
A|--------------3-------------------------------|
E|-0-0-0-0--0-0---0-0-7--0-0-5------------------|

G|----------------------------------------------|
D|----------------------------------------------|
A|-------------------------------7--------------|
E|-0-0-0-0--0-0--1--0-0-0-0--0-0----------------|

Parte 3 de 4
G|----------------------------------------------|
D|----------------------------------------------|
A|--------------3-------------------------------|
E|-0-0-0-0--0-0---0-0-0-0--0-0-5----------------|

G|----------------------------------------------|
D|----------------------------------------------|
A|------------------------------7---------------|
E|-0-0-0-0--0-0-1--0-0-0-0--0-0-----------------|

Parte 4 de 4
G|----------------------------------------------|
D|----------------------------------------------|
A|---------------3--------5---------------------|
E|-0-0-0-0--0-0----0-0-7----5--0-0-0-0--0-0-----|

G|----------------------------------------------|
D|----------------------------------------------|
A|----------------------------------------------|
E|-1--1-1-1-1--1-1-1----------------------------|


[Refrão 2]

My body aches from mistakes...

Parte 1 de 2 (3x)
G|----------------------------------------------|
D|----------------------------------------------|
A|-----------------3-3-3-3--3-3-3-3--3----------|
E|-0-0-0-0--0-0-0-------------------------------|

G|----------------------------------------------|
D|----------------------------------------------|
A|-0-0-0-0--0-0-0--1-0-1-5-1-3------------------|
E|----------------------------------------------|

Parte 2 de 2
G|----------------------------------------------|
D|----------------------------------------------|
A|-------------3-3-3-3--3-3-3--2--0-0-0-0-------|
E|-0-0-0-0--3-----------------------------------|

G|----------------------------------------------|
D|----------------------------------------------|
A|-0-0-0--1-0-1-5-1-3---------------------------|
E|----------------------------------------------|


[Terceira parte - Prelúdio e Solo de guitarra]

Parte 1 de 4
G|----------------------------------------------|
D|----5h7-7----------------8--8-7---7-----------|
A|-----------------------8-------------7/12-----|
E|-5--------5-3--3-5-6-9------------------------|

Parte 2 de 4
G|----------------------------------------------|
D|----------------------------------------------|
A|---0--0-0-0--0-0-0--0-0-0-0--0-0-0-0----------|
E|-3--------------------------------------------|

G|----------------------------------------------|
D|----------------------------------------------|
A|-0-0-0-0--0-0-0-0--0--------------------------|
E|----------------------------------------------|

Parte 3 de 4 (3x)
G|----------------------------------------------|
D|----------------------------------------------|
A|-----------------3-3-3-3--3-3-3-3--3----------|
E|-0-0-0-0--0-0-0-------------------------------|

G|----------------------------------------------|
D|----------------------------------------------|
A|-0-0-0-0--0-0-0--1-0-1-5-1-3------------------|
E|----------------------------------------------|

Parte 4 de 4
G|----------------------------------------------|
D|----------------------------------------------|
A|-------------3-3-3-3--3-3-3--2--0-0-0-0-------|
E|-0-0-0-0--3-----------------------------------|

G|----------------------------------------------|
D|----------------------------------------------|
A|-0-0-0--1-0-1-5-1-3---------------------------|
E|----------------------------------------------|


[Refrão 3]

My body aches from mistakes...

Parte 1 de 6 (3x)
G|----------------------------------------------|
D|----------------------------------------------|
A|-----------------3-3-3-3--3-3-3-3--3----------|
E|-0-0-0-0--0-0-0-------------------------------|

G|----------------------------------------------|
D|----------------------------------------------|
A|-0-0-0-0--0-0-0--1-0-1-5-1-3------------------|
E|----------------------------------------------|

Parte 2 de 6
G|----------------------------------------------|
D|----------------------------------------------|
A|-------------3-3-3-3--3-3-3--2--0-0-0-0-------|
E|-0-0-0-0--3-----------------------------------|

G|----------------------------------------------|
D|----------------------------------------------|
A|-0-0-0--1-0-1-5-1-3---------------------------|
E|----------------------------------------------|

Parte 3 de 6 
G|----------------------------------------------|
D|----------------------------------------------|
A|-----------------3-3-3-3--3-3-3-3--3----------|
E|-0-0-0-0--0-0-0-------------------------------|

G|----------------------------------------------|
D|----------------------------------------------|
A|-0-0-0-0--0-0-0--1-0-1-5-1-3------------------|
E|----------------------------------------------|

Parte 4 de 6
G|----------------------------------------------|
D|----------------------------------------------|
A|---------------3-3-3-3-3--3-3-3/12--12-12-12--|
E|-0-0-0-0-0-0-0--------------------------------|

G|----------------------------------------------|
D|-----------------------12----10\--------------|
A|-12-12-12-12--13-12-13----13------------------|
E|----------------------------------------------|

Parte 5 de 6
G|----------------------------------------------|
D|----------------------------------------------|
A|-----------------3-3-3-3--3-3-3-3--3----------|
E|-0-0-0-0--0-0-0-------------------------------|

G|----------------------------------------------|
D|----------------------------------------------|
A|-0-0-0-0--0-0-0--1-0-1-5-1-3------------------|
E|----------------------------------------------|

Parte 6 de 6
G|----------------------------------------------|
D|----------------------------------------------|
A|-------------3-3-3-3--3-3-3--2--0-0-0-0-------|
E|-0-0-0-0--3-----------------------------------|

G|----------------------------------------------|
D|----------------------------------------------|
A|-0-0-0--1-0-1-5-1-3---------------------------|
E|---------------------0------------------------|
Composição: Dave Mustaine / Tó Maria Vinhas Colaboração e revisão:
  • Reginaldo Costa

0 comentários

mostrar mais comentários

Conseguiu tocar?

1 tocaram 0 ainda não

Grave um vídeo tocando Trust e mande pra gente!

00:00 / 00:00
outros vídeos desta música
repetir qualidade Automático
Outro vídeos desta música
00:00 / 00:00
Automático
Capítulos
  • Tocando a música
  • Apresentação / Equipamentos
  • TAB - Introdução - Parte 1 de 6
  • TAB - Introdução - Parte 2 de 6
  • TAB - Introdução - Parte 3 de 6
  • TAB - Introdução - Parte 4 de 6
  • TAB - Introdução - Parte 5 de 6
  • TAB - Introdução - Parte 6 de 6
  • TAB - Primeira Parte - Parte 1 de 4
  • TAB - Primeira Parte - Parte 2 de 4
  • TAB - Primeira Parte - Parte 3 de 4
  • TAB - Primeira Parte - Parte 4 de 4
  • TAB - Refrão - Parte 1 de 2
  • TAB - Refrão - Parte 2 de 2
  • TAB - Refrão 2 - Parte 1 de 2
  • TAB - Refrão 2 - Parte 2 de 2
  • TAB - Terceira Parte - Parte 1 de 4
  • TAB - Terceira Parte - Parte 2 de 4
  • TAB - Terceira Parte - Parte 3 de 4
  • TAB - Terceira Parte - Parte 4 de 4
  • TAB - Refrão 3 - Parte 1 de 6
  • TAB - Refrão 3 - Parte 2 de 6
  • TAB - Refrão 3 - Parte 3 de 6
  • TAB - Refrão 3 - Parte 4 de 6
  • TAB - Refrão 3 - Parte 5 de 6
  • TAB - Refrão 3 - Parte 6 de 6
  • Encerramento
OK