Cifra Club

Aprenda

Revolve

Melvins

Cifra: Principal (violão e guitarra)
Tom: D
(intro)

E |-----------------------------------------------------------|
B |-----------------------------------------------------------|
G |--5h7-xx-7-7-7-5h7-xx-5h7-xx-5h7-xx-5h7--------------------|
D |--5h7-xx-7-7-7-5h7-xx-5h7-xx-5h7-xx-5h7--------------------|
A |--5---xx-5-5-5-5---xx-5---xx-5---xx-5----------------------|
D |-----------------------------------------------------------|

(verse)
E |------------------------------------------------------------|
B |------------------------------------------------------------|
G |------------------------------------------------------------|
D |------------------------------------------------------------|
A |-0--0-0--0--0-0---0-0--2-3--3-3-3--3-3-3p0-0-3h5-5-5-555555-|
D |-0--0-0--0--0-0---0-0--2-3--3-3-3--3-3-3p0-0-3h5-5-5-555555-|

E |------------------------|
B |------------------------|
G |------------------------|
D |------------------------|
A |-5-5---66666666-5-3-0---|
D |-5-5---66666666-5-3-0---|

(chorus)
E |----------------------------------------------|
B |--5--5-5-5------------------------------------|
G |--5-x5-5-5------------------8\7--8\7----------|
D |--5-x5-5-5---3-3-3-3-3-3----8\7--8\7--xx------|
A |--3-x3-3-3---3-3-3-3-3-3----6\5--6\5--xx------|
D |-------------3-3-3-3-3-3-----------------3p0--|

E |------------------------------------------------|
B |-------------------------5--5-5-5---------------|
G |----8\7--8\7-------------5-x5-5-5---------------|
D |-xx-8\7--8\7-------------5-x5-5-5--3-3-3-3-3-3--|
A |-xx-6\5--6\5-------------3-x3-3-3--3-3-3-3-3-3--|
D |--------------3p0-3p0--------------3-3-3-3-3-3--|

(chorus)
E |------------------------------------------------------------|
B |------------------------------------------------------------|
G |------------------------------------------------------------|
D |------------------------------------------------------------|
A |--------6-6-5-5------3-------------------------------------|
D |-1-0-0----------6-6-----6-5-5-4-4-3-3-2-2-3p2-0------------|

(riff 1)
E |------------------------------|
B |------------------------------|
G |------------------------------|
D |------------------------------|
A |-2-2-2-2---2-2-2-2------------|
D |-0-0-0-0---0-0-0-0--3^r-3^r---|

(riff 2)
E |------------------------------|
B |------------------------------|
G |--7-7-7-7-7--7-7-7-7/8\7---|
D |--7-7-7-7-7--7-7-7-7/8\7---|
A |--5-5-5-5-5--5-5-5-5/6\5---|
D |---------------------------|

(riff 3)
E |-------------------------------|
B |-------------------------------|
G |--7--7--7-7-7-7--7-7-7---4-5---|
D |--7--7--7-7-7-7--7-7-7---4-5---|
A |--5--5--5-5-5-5--5-5-5---2-3---|
D |-------------------------------|

(bridge)
E |---------------------------|
B |---------------------------|
G |-7--7----------------------|
D |-7--7-------0h3p0----------|
A |-5--5---2h3-------3--2-3---|
D |---------------------------|

(songflow)
(intro 5x)
(verse 2x)
(verse 4x w/heavy pm)
(chorus)
(verse 4x w/heavy pm)
(chorus)
(riff 1 3x)
(riff 2 2x)
(riff 1 4x)
(riff 1 6x w/heavy pm)
(riff 3 3x)
(bridge 20x)
(cg)
(end of chorus 2x)
Composição de Buzz Osborne / Mark Deutrom
Colaboração e revisão:
  • Brain Onion
751 exibições
    • ½ Tom
    • A
    • Bb
    • B
    • C
    • Db
    • D
    • Eb
    • E
    • F
    • F#
    • G
    • Ab
  • Adicionar à lista

    0 comentários

    Mostrar mais comentários

    Conseguiu tocar?

    0 Tocaram 0 Ainda não

    Grave um vídeo tocando Revolve e mande pra gente!

    00:00 / 00:00
    outros vídeos desta música
    repetir qualidade Automático
    Outros vídeos desta música
    00:00 / 00:00
    Automático

    Cifra Club Pro

    Aproveite o Cifra Club com benefícios exclusivos e sem anúncios
    Cifra Club Pro
    Aproveite o Cifra Club com benefícios exclusivos e sem anúncios
    OK