Cifra Club

All Nightmare Long

Metallica

Cifra: Principal
exibições 86.641
Tom: D
D|------------------------|--------------------------|------------------------|
A|------------------------|--------------------------|------------------------|
F|------------------------|--------------------------|------------------------|
C|--------7--8~------7----|--------7-----------7-----|--------7--8~------7----|
G|-----7------------------|-----7-----------------8--|-----7------------------|
D|--0---------------------|--0--------3~----0--------|--0---------------------|

--------------------------|------------------------|--------------------------|
--------------------------|------------------------|--------------------------|
--------------------------|------------------------|--------------------------|
--------7-----------7-----|--------7--8~------7----|--------7-----------7-----|
-----7-----------------8--|-----7------------------|-----7-----------------8--|
--0--------3~----0--------|--0---------------------|--0--------3~----0--------|

D|------------------------|--------------------------|------------------------|
A|------------------------|--------------------------|------------------------|
F|------------------------|--------------------------|------------------------|
C|--------7--8~------7----|--------7-----------7-----|--------7--8~------7----|
G|-----7------------------|-----7-----------------8--|-----7------------------|
D|--0---------------------|--0--------3~----0--------|--0---------------------|

--------------------------|------------------------|--------------------------|
--------------------------|------------------------|--------------------------|
--------------------------|------------------------|--------------------------|
--------7-----------7-----|--------7--8~------7----|--------7-----------7-----|
-----7-----------------8--|-----7------------------|-----7-----------------8--|
--0--------3~----0--------|--0---------------------|--0--------3~----0--------|

D|------------------------|--------------------------|------------------------|
A|------------------------|--------------------------|------------------------|
F|------------------------|--------------------------|------------------------|
C|--------7--8~------7----|--------7-----------7-----|--------7--8~------7----|
G|-----7------------------|-----7-----------------8--|-----7------------------|
D|--0---------------------|--0--------3~----0--------|--0---------------------|

--------------------------|------------------------|--------------------------|
--------------------------|------------------------|--------------------------|
--------------------------|------------------------|--------------------------|
--------7-----------7-----|--------7--8~------7----|--------7-----------7-----|
-----7-----------------8--|-----7------------------|-----7-----------------8--|
--0--------3~----0--------|--0---------------------|--0--------3~----0--------|

(James)

D|-------|-------|-------|-------|-------|-------|-------|-------|
A|-------|-------|-------|-------|-------|-------|-------|-------|
F|-------|-------|-------|-------|-------|-------|-------|-------|
C|-------|-------|-------|-------|-------|-------|-------|-------|
G|-------|-------|-------|-------|-------|-------|-------|-------|
D|-------|-------|-------|-------|-------|-------|-------|-------|

---------------------|---------------------------|---------------------|
---------------------|---------------------------|---------------------|
---------------------|---------------------------|---------------------|
---------------------|---------------------------|---------------------|
--2------8------7----|--2-2----------------------|--2------8------7----|
--0------6------5----|--0-0----------------------|--0------6------5----|

---------------------------|---------------------|--------------------------|
---------------------------|---------------------|--------------------------|
---------------------------|---------------------|--------------------------|
---------------------------|---------------------|--------------------------|
--2-2----------------------|--2------8------7----|--2--2--2-----------------|
--0-0----------------------|--0------6------5----|--0--0--0-----------------|

---------------------|---------------------------|---------------------------|
---------------------|---------------------------|---------------------------|
---------------------|---------------------------|---------------------------|
---------------------|---------------------------|---------------------------|
--2------8------7----|--2-2-------2--------------|--2-2-------2--------------|
--0------6------5----|--0-0-------0--------------|--0-0-------0--------------|

---------------------------|---------------------|
---------------------------|---------------------|
---------------------------|---------------------|
---------------------------|---------------------|
--2-2-------2--------------|--2-2----------------|
--0-0-------0--------------|--0-0----------------|

----------------------------------|----------------------------------|
----------------------------------|----------------------------------|
----------------------------------|----------------------------------|
----------------------------------|----------------------------------|
----------------------------------|----------------------------------|
--0-0-0-0-0-0-0-0-0-0-0-0-0-0-0-0-|--0-0-0-0-0-0-0-0-0-0-0-0-0-0-0-0-|

----------------------------------|----------------------------------|
----------------------------------|----------------------------------|
----------------------------------|----------------------------------|
----------------------------------|----------------------------------|
----------------------------------|----------------------------------|
--0-0-0-0-0-0-0-0-0-0-0-0-0-0-0-0-|--0-0-0-0-0-0-0-0-0-0-0-0-0-0-0-0-|

---------------------------|--------------------------|
---------------------------|--------------------------|
---------------------------|--------------------------|
---------------------------|--------------------------|
---------------------------|--------------------------|
--0-0-0--0--0--0--0--0--0--|--0--0--0--0--0--0--0--0--|

---------------------------|--------------------------|
---------------------------|--------------------------|
---------------------------|--------------------------|
---------------------------|--------------------------|
---------------------------|--------------------------|
--0-0-0--0--0--0--0--0--0--|--0--0--0--0--0--0--0--0--|

---------------------------|--------------------------|
---------------------------|--------------------------|
---------------------------|--------------------------|
---------------------------|--------------------------|
---------------------------|--------------------------|
--0-0-0--0--0--0--0--0--0--|--0--0--0--0--0--0--0--0--|

---------------------------|--------------------------|
---------------------------|--------------------------|
---------------------------|--------------------------|
---------------------------|--------------------------|
---------------------------|--------------------------|
--0-0-0--0--0--0--0--0--0--|--0--0--0--0--0--0--0--0--|

---------------------------|----------------------------|
---------------------------|----------------------------|
---------------------------|----------------------------|
---------------------------|----------------------------|
------------------3--3-----|-----3--3-------------------|
--0-0-0--0--0--0--1--1--0--|--0--1--1--0--1-1-1--2-2-2--|

---------------------------|----------------------------|
---------------------------|----------------------------|
---------------------------|----------------------------|
---------------------------|----------------------------|
------------------3--3-----|-----3--3-------------------|
--3-3-3--0--0--0--1--1--0--|--0--1--1--0--1-1-1--2-2-2--|

---------------------------|----------------------------|
---------------------------|----------------------------|
---------------------------|----------------------------|
---------------------------|----------------------------|
------------------3--3-----|-----3--3-------------------|
--3-3-3--0--0--0--1--1--0--|--0--1--1--0--1-1-1--2-2-2--|

---------------------------|----------------------------|
---------------------------|----------------------------|
---------------------------|----------------------------|
---------------------------|----------------------------|
------------------3--3-----|-----3--3-------------------|
--3-3-3--0--0--0--1--1--0--|--0--1--1--0--1-1-1--2-2-2--|

---------------------------|----------------------------|
---------------------------|----------------------------|
---------------------------|----------------------------|
---------------------------|----------------------------|
------------------3--3-----|-----3--3-------------------|
--3-3-3--0--0--0--1--1--0--|--0--1--1--0--1-1-1--2-2-2--|

---------------------------|----------------------------|
---------------------------|----------------------------|
---------------------------|----------------------------|
---------------------------|----------------------------|
------------------3--3-----|-----3--3-------------------|
--3-3-3--0--0--0--1--1--0--|--0--1--1--0--1-1-1--2-2-2--|

---------------------------|----------------------------|
---------------------------|----------------------------|
---------------------------|----------------------------|
---------------------------|----------------------------|
------------------3--3-----|-----3--3-------------------|
--3-3-3--0--0--0--1--1--0--|--0--1--1--0--1-1-1--2-2-2--|

---------------------------|--------------------------------|
---------------------------|--------------------------------|
---------------------------|--------------------------------|
---------------------------|--------------------------------|
------------------3--3-----|-----3--3-----------------------|
--3-3-3--0--0--0--1--1--0--|--0--1--1-----------------------|

--------------------------|----------------------------|
--------------------------|----------------------------|
--------------------------|----------------------------|
--------------------------|----------------------------|
--5-----7-----5-----7-----|--2-----2--5----------------|
--3--0--5--0--3--0--5--0--|--0-----0--3----3-3-3-3-3-3-|

----------------------------|----------------------------|
----------------------------|----------------------------|
----------------------------|----------------------------|
----------------------------|----------------------------|
--2-----2--5----------------|--2-----2--5----------------|
--0-----0--3----3-3-3-3-3-3-|--0-----0--3----3-3-3-3-3-3-|

-----------------------------|----------------------------|
-----------------------------|----------------------------|
-----------------------------|----------------------------|
--9--9--9s--7--7s--12--12----|----------------------------|
--7--7--7s--5--5s--10--10----|--2-----2--5----------------|
-----------------------------|--0-----0--3----3-3-3-3-3-3-|

----------------------------|----------------------------|
----------------------------|----------------------------|
----------------------------|----------------------------|
----------------------------|----------------------------|
--2-----2--5----------------|--2-----2--5----------------|
--0-----0--3----3-3-3-3-3-3-|--0-----0--3----3-3-3-3-3-3-|

-----------------------------|------------------------------|
-----------------------------|------------------------------|
-----------------------------|------------------------------|
--9--9--9s--7--7s--12--12----|--4------5------8------9------|
--7--7--7s--5--5s--10--10----|--2------3------6------7------|
-----------------------------|------------------------------|

--------------------------------------------------|----------------------------|
--------------------------------------------------|----------------------------|
--------------------------------------------------|----------------------------|
--5---5-5-5---5-5-5---5-5-5---5-5-7-7-7-7-7-7-7-7-|----------------------------|
--------------------------------------------------|--2-----2--5----------------|
--------------------------------------------------|--0-----0--3----3-3-3-3-3-3-|

----------------------------|----------------------------|
----------------------------|----------------------------|
----------------------------|----------------------------|
----------------------------|----------------------------|
--2-----2--5----------------|--2-----2--5----------------|
--0-----0--3----3-3-3-3-3-3-|--0-----0--3----3-3-3-3-3-3-|

-----------------------------|------------------------------|
-----------------------------|------------------------------|
-----------------------------|------------------------------|
--9--9--9s--7--7s--12--12----|--4------5------8------9------|
--7--7--7s--5--5s--10--10----|--2------3------6------7------|
-----------------------------|------------------------------|

------------------------------|----------------------------------|
------------------------------|----------------------------------|
------------------------------|----------------------------------|
--5-5-5-5-5-5-5-5-5-----------|----------------------------------|
------------------------------|----------------------------------|
------------------------------|--2-2-2-2-2-2-2-2-2-2-2-2-2-2-2-2-|

----------------------------------|----------------------------------|
----------------------------------|----------------------------------|
----------------------------------|----------------------------------|
----------------------------------|----------------------------------|
----------------------------------|----------------------------------|
--2-2-2-2-2-2-2-2-2-2-2-2-2-2-2-2-|--2-2-2-2-2-2-2-2-2-2-2-2-2-2-2-2-|

-------------------------------|----------------------------------|
-------------------------------|----------------------------------|
-------------------------------|----------------------------------|
-----------4-------------------|----------------------------------|
--4--5--7-----7--5--4h-5p-4s-2-|----------------------------------|
-------------------------------|--2-2-2-2-2-2-2-2-2-2-2-2-2-2-2-2-|

----------------------------------|----------------------------------|
----------------------------------|----------------------------------|
----------------------------------|----------------------------------|
----------------------------------|----------------------------------|
----------------------------------|----------------------------------|
--2-2-2-2-2-2-2-2-2-2-2-2-2-2-2-2-|--2-2-2-2-2-2-2-2-2-2-2-2-2-2-2-2-|

-------------------------------|----------------------------------|
-------------------------------|----------------------------------|
-------------------------------|----------------------------------|
-----------4-------------------|----------------------------------|
--4--5--7-----7--5--4h-5p-4s-2-|--4-4-4-4-4-4-4-4-4-4-4-4-4-4-4-4-|
-------------------------------|----------------------------------|

----------------------------------|----------------------------------|
----------------------------------|----------------------------------|
----------------------------------|----------------------------------|
----------------------------------|----------------------------------|
--4-4-4-4-4-4-4-4-4-4-4-4-4-4-4-4-|--5-5-5-5-5-5-5-5-5-5-5-5-5-5-5-5-|
----------------------------------|----------------------------------|

----------------------------------|----------------------------------|
----------------------------------|----------------------------------|
----------------------------------|----------------------------------|
----------------------------------|----------------------------------|
--5-5-5-5-5-5-5-5-5-5-5-5-5-5-5-5-|--4-4-4-4-4-4-4-4-4-4-4-4-4-4-4-4-|
----------------------------------|----------------------------------|

----------------------------------|----------------------------------|
----------------------------------|----------------------------------|
----------------------------------|----------------------------------|
----------------------------------|----------------------------------|
----------------------------------|--4-4-4-4-4-4-4-4-4-4-4-4-4-4-4-4-|
--2-2-2-2-2-2-2-2-2-2-2-2-2-2-2-2-|----------------------------------|

----------------------------------|---------------------|---------------------|
----------------------------------|---------------------|---------------------|
----------------------------------|---------------------|---------------------|
----------------------------------|--6------------------|--6------------------|
--5-5-5-5-5-5-5-5-5-5-5-5-5-5-5-5-|--4------4------5----|--4------4------5----|
----------------------------------|---------2------3----|---------2------3----|

                                              PM PM PM PM PM PM PM PM
---------------------|---------------------|--------------------------|
---------------------|---------------------|--------------------------|
---------------------|---------------------|--------------------------|
--6------------------|--6------------------|--------------------------|
--4------4------5----|--4------4------5----|--4--4--4--4--4--2--2--2--|
---------2------3----|---------2------3----|--2--2--2--2--2--0--0--0--|

  PM PM PM PM PM PM PM PM
--------------------------|------------------------------|
--------------------------|------------------------------|
--------------------------|------------------------------|
--------------------------|--4------5------8------9------|
--4--4--4--4--4--2--2--2--|--2------3------6------7------|
--2--2--2--2--2--0--0--0--|------------------------------|

------------------------------|----------------------------|
------------------------------|----------------------------|
------------------------------|----------------------------|
--5-5-5-5-5-5-5-5-5-----------|----------------------------|
------------------------------|--2-----2--5----------------|
------------------------------|--0-----0--3----3-3-3-3-3-3-|

----------------------------|----------------------------|
----------------------------|----------------------------|
----------------------------|----------------------------|
----------------------------|----------------------------|
--2-----2--5----------------|--2-----2--5----------------|
--0-----0--3----3-3-3-3-3-3-|--0-----0--3----3-3-3-3-3-3-|

-----------------------------|------------------------------|
-----------------------------|------------------------------|
-----------------------------|------------------------------|
--9--9--9s--7--7s--12--12----|--4------5------8------9------|
--7--7--7s--5--5s--10--10----|--2------3------6------7------|
-----------------------------|------------------------------|

------------------------------|----------------------------|
------------------------------|----------------------------|
------------------------------|----------------------------|
--5-5-5-5-5-5-5-5-5-----------|-----------5--5S--4--4S--2--|
------------------------------|--2--2--x-------------------|
------------------------------|--0--0--x-------------------|

----------------------------|----------------------------|
----------------------------|----------------------------|
----------------------------|----------------------------|
-----------5--5S--4--4S--2--|-----------5--5S--4--4S--2--|
--2--2--x-------------------|--2--2--x-------------------|
--0--0--x-------------------|--0--0--x-------------------|

--------------------------|----------------------------|
--------------------------|----------------------------|
--------------------------|----------------------------|
--7--7--x--7--7S--4--4----|-----------5--5S--4--4S--2--|
--5--5--x--5--5S--2--2----|--2--2--x-------------------|
--------------------------|--0--0--x-------------------|

----------------------------|----------------------------|
----------------------------|----------------------------|
----------------------------|----------------------------|
-----------5--5S--4--4S--2--|-----------5--5S--4--4S--2--|
--2--2--x-------------------|--2--2--x-------------------|
--0--0--x-------------------|--0--0--x-------------------|

--------------------------|----------------------------|
--------------------------|----------------------------|
--------------------------|----------------------------|
--7--7--x--7--7S--4--4----|-----------5--5S--4--4S--2--|
--5--5--x--5--5S--2--2----|--2--2--x-------------------|
--------------------------|--0--0--x-------------------|

----------------------------|----------------------------|
----------------------------|----------------------------|
----------------------------|----------------------------|
-----------5--5S--4--4S--2--|-----------5--5S--4--4S--2--|
--2--2--x-------------------|--2--2--x-------------------|
--0--0--x-------------------|--0--0--x-------------------|

--------------------------|----------------------------|
--------------------------|----------------------------|
--------------------------|----------------------------|
--7--7--x--7--7S--4--4----|-----------5--5S--4--4S--2--|
--5--5--x--5--5S--2--2----|--2--2--x-------------------|
--------------------------|--0--0--x-------------------|

----------------------------|----------------------------|
----------------------------|----------------------------|
----------------------------|----------------------------|
-----------5--5S--4--4S--2--|-----------5--5S--4--4S--2--|
--2--2--x-------------------|--2--2--x-------------------|
--0--0--x-------------------|--0--0--x-------------------|

--------------------------|--------------------------|
--------------------------|--------------------------|
--------------------------|--------------------------|
--7--7--x--7--7S--4--4----|--------------------------|
--5--5--x--5--5S--2--2----|--3-----3-----3-----------|
--------------------------|--1-----1-----1-----------|

---------------------------|----------------------------|
---------------------------|----------------------------|
---------------------------|----------------------------|
---------------------------|----------------------------|
------------------3--3-----|-----3--3-------------------|
--0-0-0--0--0--0--1--1--0--|--0--1--1--0--1-1-1--2-2-2--|

---------------------------|----------------------------|
---------------------------|----------------------------|
---------------------------|----------------------------|
---------------------------|----------------------------|
------------------3--3-----|-----3--3-------------------|
--0-0-0--0--0--0--1--1--0--|--0--1--1--0--1-1-1--2-2-2--|

---------------------------|----------------------------|
---------------------------|----------------------------|
---------------------------|----------------------------|
---------------------------|----------------------------|
------------------3--3-----|-----3--3-------------------|
--0-0-0--0--0--0--1--1--0--|--0--1--1--0--1-1-1--2-2-2--|

---------------------------|--------------------------------|
---------------------------|--------------------------------|
---------------------------|--------------------------------|
---------------------------|--------------------------------|
------------------3--3-----|-----3--3-----------------------|
--0-0-0--0--0--0--1--1--0--|--0--1--1-----------------------|

--------------------------|----------------------------|
--------------------------|----------------------------|
--------------------------|----------------------------|
--------------------------|----------------------------|
--5-----7-----5-----7-----|--2-----2--5----------------|
--3--0--5--0--3--0--5--0--|--0-----0--3----3-3-3-3-3-3-|

----------------------------|----------------------------|
----------------------------|----------------------------|
----------------------------|----------------------------|
----------------------------|----------------------------|
--2-----2--5----------------|--2-----2--5----------------|
--0-----0--3----3-3-3-3-3-3-|--0-----0--3----3-3-3-3-3-3-|

-----------------------------|----------------------------|
-----------------------------|----------------------------|
-----------------------------|----------------------------|
--9--9--9s--7--7s--12--12----|----------------------------|
--7--7--7s--5--5s--10--10----|--2-----2--5----------------|
-----------------------------|--0-----0--3----3-3-3-3-3-3-|

----------------------------|----------------------------|
----------------------------|----------------------------|
----------------------------|----------------------------|
----------------------------|----------------------------|
--2-----2--5----------------|--2-----2--5----------------|
--0-----0--3----3-3-3-3-3-3-|--0-----0--3----3-3-3-3-3-3-|

-----------------------------|------------------------------|
-----------------------------|------------------------------|
-----------------------------|------------------------------|
--9--9--9s--7--7s--12--12----|--4------5------8------9------|
--7--7--7s--5--5s--10--10----|--2------3------6------7------|
-----------------------------|------------------------------|

------------------------------|----------------------------------|
------------------------------|----------------------------------|
------------------------------|----------------------------------|
--5-5-5-5-5-5-5-5-5-----------|----------------------------------|
------------------------------|----------------------------------|
------------------------------|--2-2-2-2-2-2-2-2-2-2-2-2-2-2-2-2-|

----------------------------------|----------------------------------|
----------------------------------|----------------------------------|
----------------------------------|----------------------------------|
----------------------------------|----------------------------------|
----------------------------------|----------------------------------|
--2-2-2-2-2-2-2-2-2-2-2-2-2-2-2-2-|--2-2-2-2-2-2-2-2-2-2-2-2-2-2-2-2-|

-------------------------------|----------------------------------|
-------------------------------|----------------------------------|
-------------------------------|----------------------------------|
-----------4-------------------|----------------------------------|
--4--5--7-----7--5--4h-5p-4s-2-|----------------------------------|
-------------------------------|--2-2-2-2-2-2-2-2-2-2-2-2-2-2-2-2-|

----------------------------------|----------------------------------|
----------------------------------|----------------------------------|
----------------------------------|----------------------------------|
----------------------------------|----------------------------------|
----------------------------------|----------------------------------|
--2-2-2-2-2-2-2-2-2-2-2-2-2-2-2-2-|--2-2-2-2-2-2-2-2-2-2-2-2-2-2-2-2-|

-------------------------------|----------------------------------|
-------------------------------|----------------------------------|
-------------------------------|----------------------------------|
-----------4-------------------|----------------------------------|
--4--5--7-----7--5--4h-5p-4s-2-|--4-4-4-4-4-4-4-4-4-4-4-4-4-4-4-4-|
-------------------------------|----------------------------------|

----------------------------------|----------------------------------|
----------------------------------|----------------------------------|
----------------------------------|----------------------------------|
----------------------------------|----------------------------------|
--4-4-4-4-4-4-4-4-4-4-4-4-4-4-4-4-|--5-5-5-5-5-5-5-5-5-5-5-5-5-5-5-5-|
----------------------------------|----------------------------------|

----------------------------------|----------------------------------|
----------------------------------|----------------------------------|
----------------------------------|----------------------------------|
----------------------------------|----------------------------------|
--5-5-5-5-5-5-5-5-5-5-5-5-5-5-5-5-|--4-4-4-4-4-4-4-4-4-4-4-4-4-4-4-4-|
----------------------------------|----------------------------------|

----------------------------------|----------------------------------|
----------------------------------|----------------------------------|
----------------------------------|----------------------------------|
----------------------------------|----------------------------------|
----------------------------------|--4-4-4-4-4-4-4-4-4-4-4-4-4-4-4-4-|
--2-2-2-2-2-2-2-2-2-2-2-2-2-2-2-2-|----------------------------------|

----------------------------------|---------------------|---------------------|
----------------------------------|---------------------|---------------------|
----------------------------------|---------------------|---------------------|
----------------------------------|--6------------------|--6------------------|
--5-5-5-5-5-5-5-5-5-5-5-5-5-5-5-5-|--4------4------5----|--4------4------5----|
----------------------------------|---------2------3----|---------2------3----|

                                              PM PM PM PM PM PM PM PM
---------------------|---------------------|--------------------------|
---------------------|---------------------|--------------------------|
---------------------|---------------------|--------------------------|
--6------------------|--6------------------|--------------------------|
--4------4------5----|--4------4------5----|--4--4--4--4--4--2--2--2--|
---------2------3----|---------2------3----|--2--2--2--2--2--0--0--0--|

  PM PM PM PM PM PM PM PM
--------------------------|------------------------------|
--------------------------|------------------------------|
--------------------------|------------------------------|
--------------------------|--4------5------8------9------|
--4--4--4--4--4--2--2--2--|--2------3------6------7------|
--2--2--2--2--2--0--0--0--|------------------------------|

------------------------------|----------------------------|
------------------------------|----------------------------|
------------------------------|----------------------------|
--5-5-5-5-5-5-5-5-5-----------|----------------------------|
------------------------------|--2-----2--5----------------|
------------------------------|--0-----0--3----3-3-3-3-3-3-|

----------------------------|----------------------------|
----------------------------|----------------------------|
----------------------------|----------------------------|
----------------------------|----------------------------|
--2-----2--5----------------|--2-----2--5----------------|
--0-----0--3----3-3-3-3-3-3-|--0-----0--3----3-3-3-3-3-3-|

-----------------------------|------------------------------|
-----------------------------|------------------------------|
-----------------------------|------------------------------|
--9--9--9s--7--7s--12--12----|--4------5------8------9------|
--7--7--7s--5--5s--10--10----|--2------3------6------7------|
-----------------------------|------------------------------|

------------------------------|----------------------------|
------------------------------|----------------------------|
------------------------------|----------------------------|
--5-5-5-5-5-5-5-5-5-----------|-----------5--5S--4--4S--2--|
------------------------------|--2--2--x-------------------|
------------------------------|--0--0--x-------------------|

----------------------------|----------------------------|
----------------------------|----------------------------|
----------------------------|----------------------------|
-----------5--5S--4--4S--2--|-----------5--5S--4--4S--2--|
--2--2--x-------------------|--2--2--x-------------------|
--0--0--x-------------------|--0--0--x-------------------|

--------------------------|----------------------------|
--------------------------|----------------------------|
--------------------------|----------------------------|
--7--7--x--7--7S--4--4----|-----------5--5S--4--4S--2--|
--5--5--x--5--5S--2--2----|--2--2--x-------------------|
--------------------------|--0--0--x-------------------|

----------------------------|----------------------------|
----------------------------|----------------------------|
----------------------------|----------------------------|
-----------5--5S--4--4S--2--|-----------5--5S--4--4S--2--|
--2--2--x-------------------|--2--2--x-------------------|
--0--0--x-------------------|--0--0--x-------------------|

--------------------------|----------------------------|
--------------------------|----------------------------|
--------------------------|----------------------------|
--7--7--x--7--7S--4--4----|-----------5--5S--4--4S--2--|
--5--5--x--5--5S--2--2----|--2--2--x-------------------|
--------------------------|--0--0--x-------------------|

----------------------------|----------------------------|
----------------------------|----------------------------|
----------------------------|----------------------------|
-----------5--5S--4--4S--2--|-----------5--5S--4--4S--2--|
--2--2--x-------------------|--2--2--x-------------------|
--0--0--x-------------------|--0--0--x-------------------|

--------------------------|----------------------------|
--------------------------|----------------------------|
--------------------------|----------------------------|
--7--7--x--7--7S--4--4----|-----------5--5S--4--4S--2--|
--5--5--x--5--5S--2--2----|--2--2--x-------------------|
--------------------------|--0--0--x-------------------|

----------------------------|----------------------------|
----------------------------|----------------------------|
----------------------------|----------------------------|
-----------5--5S--4--4S--2--|-----------5--5S--4--4S--2--|
--2--2--x-------------------|--2--2--x-------------------|
--0--0--x-------------------|--0--0--x-------------------|

--------------------------|--------------------------|-----|
--------------------------|--------------------------|-----|
--------------------------|--------------------------|-----|
--7--7--x--7--7S--4--4----|--------------------------|-----|
--5--5--x--5--5S--2--2----|--3-----3-----3-----------|-----|
--------------------------|--1-----1-----1-----------|-----|

--------------------|-------|-----|-------|-----|-------|-----|-------|
--------------------|-------|-----|-------|-----|-------|-----|-------|
--------------------|-------|-----|-------|-----|-------|-----|-------|
--------------------|--4----|-----|--4----|-----|--4----|-----|--4----|
--------------------|--2----|-----|--2----|-----|--2----|-----|--2----|
--------------------|-------|-----|-------|-----|-------|-----|-------|

----------------------------|----------------------------|
----------------------------|----------------------------|
----------------------------|----------------------------|
----------------------------|--4----L\-------------------|
--------2--2--2-------------|--2----L\-------------------|
--------0--0--0--0-0-0-0-0--|-----------------0-0-0-0-0--|

----------------------------|----------------------------|
----------------------------|----------------------------|
----------------------------|----------------------------|
----------------------------|--4----L\-------------------|
--5\----4--3--2-------------|--2----L\-------------------|
--3\----2--1--0--0-0-0-0-0--|-----------------0-0-0-0-0--|

----------------------------|----------------------------|
----------------------------|----------------------------|
----------------------------|----------------------------|
----------------------------|--4----L\-------------------|
--5----L\-------------------|--2----L\-------------------|
--3----L\--------0-0-0-0-0--|-----------------0-0-0-0-0--|

----------------------------|----------------------------|
----------------------------|----------------------------|
----------------------------|----------------------------|
----------------------------|--4----L\-------------------|
--5----L\-------------------|--2----L\-------------------|
--3----L\--------0-0-0-0-0--|-----------------0-0-0-0-0--|

----------------------------||
----------------------------||
----------------------------||
----------------------------||
--5----L\-------------------||
--3----L\--------0-0-0-0-0--||

(4:25)

-------|-------|-------|-------|--------------------|------------------------|
-------|-------|-------|-------|--------------------|------------------------|
-------|-------|-------|-------|-----------------5--|--4-------4-------------|
-------|-------|-------|-------|--------------------|-------4-----5----4--7--|
-------|-------|-------|-------|--------------------|------------------------|
-------|-------|-------|-------|--------------------|------------------------|

-------------------------|------------------------|-------------------------|
-------------------------|------------------------|-------------------------|
----------------------5--|--4-------4-------------|----------------------5--|
--5----4--3--2--5--4-----|-------4-----5----4--7--|--5----4--3--2--5--4-----|
-------------------------|------------------------|-------------------------|
-------------------------|------------------------|-------------------------|

------------------------|-------------------------|------------------------|
------------------------|-------------------------|------------------------|
--4-------4-------------|----------------------5--|--4-------4-------------|
-------4-----5----4--7--|--5----4--3--2--5--4-----|-------4-----5----4--7--|
------------------------|-------------------------|------------------------|
------------------------|-------------------------|------------------------|

-------------------------|------------------------|-------------------------|
-------------------------|------------------------|-------------------------|
----------------------5--|--4-------4-------------|----------------------5--|
--5----4--3--2--5--4-----|-------4-----5----4--7--|--5----4--3--2--5--4-----|
-------------------------|------------------------|-------------------------|
-------------------------|------------------------|-------------------------|

------------------------|-------------------------|------------------------|
------------------------|-------------------------|------------------------|
--4-------4-------------|----------------------5--|--4-------4-------------|
-------4-----5----4--7--|--5----4--3--2--5--4-----|-------4-----5----4--7--|
------------------------|-------------------------|------------------------|
------------------------|-------------------------|------------------------|

-------------------------|-----|-----||
-------------------------|-----|-----||
----------------------5--|-----|-----||
--5----4--3--2--5--4-----|-----|-----||
-------------------------|-----|-----||
-------------------------|-----|-----||
Acordes para:

    0 comentários

      mostrar mais comentários

      Conseguiu tocar?

      16tocaram1ainda não

      Grave um vídeo tocando All Nightmare Long e mande pra gente!

      00:00 / 00:00
      outros vídeos desta música
      repetirqualidadeautomática
      Outro vídeos desta música
        00:00 / 00:00
        automática
        OK