Cifra Club

Astronomy

Metallica

Cifra: Versão 2 (violão e guitarra)
tom: G
Tuned 1/2 step down Eb Bb Gb Db Ab Eb
                 or D# A# F# C# G# D#

this is a great song, i wish i knew all of it, but i only know most of the
easy stuff, no solo, sorry

#'s mean you fingers for these diagrams, 1 is your index finger and 2 is your
middle finger so on and so forth...

    Em      D     G(diff)    C           B5
  0--000  XX0---  -X00-X   ---0-0      ------
  ||||||  ||||||  ||||||   ||||1|  (2) |1||||
  ------  ------  ------   ------      ------
  |12|||  |||1|2  ||||||   ||2|||      ||||||
  ------  ------  ------   ------      ------
  ||||||  ||||3|  2|||3|   |3||||      ||34||
  ------  ------  ------   ------      ------

wait for 6 measures for the drums to get done and then...

(* = this on the G string: G-4-2-0- towards the end of the measure)

 | 4/4 | Em*| Em*| Em*| Em*| Em*| Em*|

 | Em D | 2/4 | C B5 | 4/4 | Em*|

 | Em D | 2/4 | C B5 | 4/4 | Em*|

 | C G | C B5 | Em D | 2/4 | C B5 | 4/4 | Em*| Em*| Em*| Em*|

 | Em D | 2/4 | C B5 | 4/4 | Em*|

 | Em D | 2/4 | C B5 | 4/4 | Em*|

 | C G | C B5 | Em D | 2/4 | C B5 | 4/4 | Em*| Em*|


 


guitar 1
|---------------|---------------|---------------|---------------|
|---------------|---------------|---------------|---------------|
|---------------|---------------|---------------|---------------|
|-7-9----7------|-7-9----7------|-7-9----7------|-7-9----7------|
|-----10---10-9-|-----10---10-7-|-----10---10-9-|-----10---10-7-|
|---------------|---------------|---------------|---------------|



then 2 guitars....

guitar 1
|---------------|---------------|---------------|------------------|
|---------------|---------------|---------------|------------------|
|---------------|---------------|---------------|------------------|
|-7-9----7------|-7-9----7------|-7-9----7------|-7-9----7---------|
|-----10---10-9-|-----10---10-7-|-----10---10-9-|-----10---10-7----|
|---------------|---------------|---------------|------------------|

guitar 2
|---------------|---------------|---------------|------------------------|
|-5-3-5-5-------|---------------|-5-3-5-5-------|------------------------|
|---------4-4>7-|-5p4---5-4-2>4-|---------4-4>7-|-5p4---5-4-4-5---5h7---7|
|---------------|-----7---------|---------------|-----7---------5-----7--|
|---------------|---------------|---------------|------------------------|
|---------------|---------------|---------------|------------------------|

guitar 1               For both parts... x9
|---------------|--------------------------|
|---------------|--------------------------|
|--------------5|-5-xx-7-x-7-x-7-xx-9-9-xx-|
|-2-x-2-x-2-xx-5|-5-xx-7-x-7-x-7-xx-9-9-xx-|
|-2-x-2-x-2-xx-3|-3-xx-5-x-5-x-5-xx-7-7-xx-|
|-0-x-0-x-0-xx--|-------------------0-0-xx-|

guitar 2
|---------------|--------------------------|
|---------------|--------------------------|
|--------------5|-5-xx-7-x-7-x-7-xx--------|
|-2-x-2-x-2-xx-5|-5-xx-7-x-7-x-7-xx-2-2-xx-|
|-2-x-2-x-2-xx-3|-3-xx-5-x-5-x-5-xx-2-2-xx-|
|-0-x-0-x-0-xx--|-------------------0-0-xx-|

guitars 1 and 2        x3
|-----------------------|
|-----------------------|
|-7-x-5-x-7-x-5-5-5-5-5-|
|-7-x-5-x-7-x-5-5-5-5-5-|
|-5-x-3-x-5-x-3-3-3-3-3-|
|-----------------------|



don't know the next part sorry...



 | Em*| Em*| Em*| Em*|

 | Em D | 2/4 | C B5 | 4/4 | Em*|

 | Em D | 2/4 | C B5 | 4/4 | Em*|

 | C G | C B5 | Em D | 2/4 | C B5 | 4/4 | Em*| Em*|



guitar 1
|---------------|---------------|---------------|---------------|
|---------------|---------------|---------------|---------------|
|---------------|---------------|---------------|---------------|
|-7-9----7------|-7-9----7------|-7-9----7------|-7-9----7------|
|-----10---10-9-|-----10---10-7-|-----10---10-9-|-----10---10-7-|
|---------------|---------------|---------------|---------------|


then 2 guitars....

guitar 1
|---------------|---------------|---------------|------------------|
|---------------|---------------|---------------|------------------|
|---------------|---------------|---------------|------------------|
|-7-9----7------|-7-9----7------|-7-9----7------|-7-9----7---------|
|-----10---10-9-|-----10---10-7-|-----10---10-9-|-----10---10-7----|
|---------------|---------------|---------------|------------------|

guitar 2
|---------------|---------------|---------------|------------------------|
|-5-3-5-5-------|---------------|-5-3-5-5-------|------------------------|
|---------4-4>7-|-5p4---5-4-2>4-|---------4-4>7-|-5p4---5-4-4-5---5h7---7|
|---------------|-----7---------|---------------|-----7---------5-----7--|
|---------------|---------------|---------------|------------------------|
|---------------|---------------|---------------|------------------------|


don't know the solo for guitar 1

guitar 2                                 x5
|---------------|--------------------------|
|---------------|--------------------------|
|--------------5|-5-xx-7-x-7-x-7-xx-9-9-xx-|
|-2-x-2-x-2-xx-5|-5-xx-7-x-7-x-7-xx-9-9-xx-|
|-2-x-2-x-2-xx-3|-3-xx-5-x-5-x-5-xx-7-7-xx-|
|-0-x-0-x-0-xx--|-------------------0-0-xx-|

guitar 1               For both parts... x3
|---------------|--------------------------|
|---------------|--------------------------|
|--------------5|-5-xx-7-x-7-x-7-xx-9-9-xx-|
|-2-x-2-x-2-xx-5|-5-xx-7-x-7-x-7-xx-9-9-xx-|
|-2-x-2-x-2-xx-3|-3-xx-5-x-5-x-5-xx-7-7-xx-|
|-0-x-0-x-0-xx--|-------------------0-0-xx-|

guitar 2
|---------------|--------------------------|
|---------------|--------------------------|
|--------------5|-5-xx-7-x-7-x-7-xx--------|
|-2-x-2-x-2-xx-5|-5-xx-7-x-7-x-7-xx-2-2-xx-|
|-2-x-2-x-2-xx-3|-3-xx-5-x-5-x-5-xx-2-2-xx-|
|-0-x-0-x-0-xx--|-------------------0-0-xx-|

guitar 1 (havin trouble finding notes, this is the only not im positive about)
E|-15-|
B|----|
G|----|

guitar 2
E|----|------|----|------|----|-----|---|
B|-12-|-8-10-|-12-|------|----|-----|---|
G|----|------|----|-9-11-|-12-|-5-4-|-9-|

again no guitar 1 solo known here

guitar 2 until the end
|---------------------|---------------------|
|---------------------|---------------------|
|-9-x-9-x-9-xx-7-7-xx-|-5-x-5-x-5-xx-7-7-xx-|
|-9-x-9-x-9-xx-7-7-xx-|-5-x-5-x-5-xx-7-7-xx-|
|-7-x-7-x-7-xx-5-5-xx-|-3-x-3-x-3-xx-5-5-xx-|
|---------------------|---------------------|


sorry that this doesn't have any interesting things in it, but its better than before


-Craig Fox
e mail - Speaker1180_BSC@*
00:00 / 00:00
Outros vídeos desta música
Repetir
Outros vídeos desta música
Composição de Albert Bouchard / Joe Bouchard / Sandy Pearlman
1.484 exibições
    • ½ Tom
    • A
    • Bb
    • B
    • C
    • Db
    • D
    • Eb
    • E
    • F
    • F#
    • G
    • Ab
  • Adicionar à lista

    0 comentários

    Ver todos os comentários

    Conseguiu tocar?

    0 Tocaram 0 Ainda não

    Grave um vídeo tocando Astronomy e nos envie!

    00:00 / 00:00

    Cifra Club Pro

    Aproveite o Cifra Club com benefícios exclusivos e sem anúncios
    Cifra Club Pro
    Aproveite o Cifra Club com benefícios exclusivos e sem anúncios
    OK