Cifra Club

Blues Jam

Metallica

Cifra: Principal
exibições 6.820
Tom: D
Part 1.
E|------------------------------
B|------------------------------
G|------------7-5------------7-5
D|--7p5-------7-5--7p5-------7-5
A|------7--------------7--------
E|--------5-5------------5-5----

Part 2.
G|------------------------------
B|------------------------------
G|--7p5-------7-5--7p5-------7-5
D|------7--------------7--------
A|--------5-5------------5-5----
E|------------------------------

Part 3.
E|-------------------------------------
B|------10-8-10p8h10p8------8-6-8p6h8p6
G|-------9-7----------------7-5--------
D|-------------------------------------
A|--7-7-----------------5-5------------
E|-------------------------------------

Part 4.
E|-------------------------
B|-------------------------
G|------------------------5
D|--------------------5-7--
A|----------5-5-6-6-7------
E|--5-5-8-8----------------
Acordes para:
    Colaboração e revisão:
    • Jorge Miguel

    0 comentários

      mostrar mais comentários

      Conseguiu tocar?

      0tocaram0ainda não

      Grave um vídeo tocando Blues Jam e mande pra gente!

      00:00 / 00:00
      outros vídeos desta música
      repetirqualidadeautomática
      Outro vídeos desta música
        00:00 / 00:00
        automática
        OK