Cifra Club

Cunning Stunts

Metallica

Cifra: Principal
exibições 1.406
Tom: A
~=use vibrato
*=use harmonics
/=bend to note
h=hammer on
p=pull off

E |----------------------------------------------------------
B |------------5------5------------5---5---------------------
G |----------5----------7-5-~7----5-------7-5-~7-------------
D |--7-----7-----~7-------------7----~7----------------------
A |----------------------------------------------------------
E |----------------------------------------------------------

E |-~8---5------~8---5---------------------------------------
B |--------5-----------------------5-------------------------
G |----------5---------5-~7------5---------------------------
D |-------------------------~7-------~7-----9-5--------------
A |----------------------------------------------------------
E |----------------------------------------------------------

E |-----------------------85858585---------------------------
B |-----------------------(trill)----------------------------
G |--------7----------------------------~9-------------------
D |--------7-------------------------------------------------
A |---2-3--5/6/5/6----2-3------------2-----------------------
E |-3---------------3-------------3----3---------------------

E |----------------------------------------------------------
B |----------------------------------------------------------
G |----------------------------------------------------------
D |---------2---6---7---9---12---~14-------------------------
A |-----2----------------------------------------------------
E |-0--------------------------------------------------------

E |-----*12-------3-3-h5-p3-p2------*12------2-2-h3-p2-p0----
B |---------*12---0-0-------------------*12--0-0-------------
G |----------------------------------------------------------
D |----------------------------------------------------------
A |----------------------------------------------------------
E |-0-----------------------------0--------------------------

E |---*12---------*12---------*7-------*12-*12-*12-----------
B |-------*12---------*12--------*7----------------*12-------
G |----------------------------------------------------*12---
D |----------------------------------------------------------
A |----------------------------------------------------------
E |-0----------0-----------0---------0-----------------------

E |---repeat this part 4x, then break into nothing else------
B |-------------------------------------------------matters--
G |-------0-------0-------0----------------------------------
D |-----4-------5-------7-------0-----0----------------------
A |---2-------3-------5-------4-----2-----2------------------
E |-0-------0-------0-------5-----3-----2--------------------
Acordes para:

    0 comentários

      mostrar mais comentários

      Conseguiu tocar?

      0tocaram0ainda não

      Grave um vídeo tocando Cunning Stunts e mande pra gente!

      00:00 / 00:00
      outros vídeos desta música
      repetirqualidadeautomática
      Outro vídeos desta música
        00:00 / 00:00
        automática
        OK