Enviar cifraEntrar

Cyanide

Metallica

Cifra: Principal
exibições 28.138
Tom: E
The PM'd 0's ain't really there but I don't have a wah so the doubles makes it sound better
                                                                PM PM    PM PM  
       E                                                  E  E  S  S  E  S  S  E

D#||----------------

----------------

----------------

----------------
------------
A#||
----------------

----------------

----------------

----------------
------------
F#||*
----------------

----------------

----------------

----------------
-----------
C#||*
----------------

----------------

----------------

----------------
-3--------3
G#||---2
----------------

----------------

----------------
--2--2--------1--------1
D#||---0
----------------

----------------

----------------
--0--0--0--0-----0--0---


                PM PM PM PM PM PM                                 
  Q    E  E  E  S  S  S  S  S  S   3x  Q    E  E  E  E  H         

----------------

----------------
---||
----------------
------------|

----------------

----------------
---||
----------------
------------|

----------------

----------------
--*||
----------------
------------|
--3
----------------
---------------*||--3
----------------
---------|
--1----2--2--2
----------------
-----||--1----2--2--2--------------|
-------0--0--0--0--0--0--0--0--0---||-------0--0--0--------------|


  Bass line                                                                     
  W                   W                   W                   W                 

----------------
---|
----------------
---|
----------------
---|
----------------
---|

----------------
---|
----------------
---|
----------------
---|
----------------
---|

----------------
---|
----------------
---|
----------------
---|
----------------
---|

----------------
---|
----------------
---|
----------------
---|
----------------
---|

----------------
---|
----------------
---|
----------------
---|
----------------
---|

----------------
---|
----------------
---|
----------------
---|
----------------
---|


                                      PM       PM PM         
    E  E  E  E  E  E  E  E      E  E  E  E  E  S  S  Q     4x

|----------------
-----------|
----------------
--------------||
|
----------------
-----------|
----------------
--------------||
|*
----------------
----------|
----------------
-------------*||
|*--9--9--9--8--8--8--7-----|
----------------
-------------*||
|---7--7--7--7--7--7--7--7--|--10--7-----5--7--------7-----||
|---0--0--0--0--0--0--0--0--|---0--0--0--0--0--0--0--0-----||


   uhm.. maybe double the 0s and a quick Db before Eb                           
   E                                                  S S E  E  E  S S E  E   4x

----------------

----------------

----------------

----------------
--------------||

----------------

----------------

----------------

----------------
--------------||
*
----------------

----------------

----------------

----------------
------------*||
*
----------------

----------------

----------------

----------------
------------*||

----------------

----------------

----------------
----------7--5---------7--5---||
---0
----------------

----------------

----------------
--L-0-------0--L-0--------||


                                     PM       PM PM         
   E  E  E  E  E  E  E  E      E  E  E  E  E  S  S  Q     4x

----------------
-----------|
----------------
--------------||

----------------
-----------|
----------------
--------------||
*
----------------
----------|
----------------
-------------*||
*--9--9--9--8--8--8--7-----|
----------------
-------------*||
---7--7--7--7--7--7--7--7--|--10--7-----5--7--------7-----||
---0--0--0--0--0--0--0--0--|---0--0--0--0--0--0--0--0-----||


   S S S S S S S S S S S S S S S S    

----------------

----------------
----||

----------------

----------------
----||
*
----------------

----------------
--*||
*--5-5-5-5-5-5-5-5-5-5-5-5-5-5-5-5-*||
---7-7-7-7-7-7-7-7-7-7-7-7-7-7-7-7--||

----------------

----------------
----||


  Either this or the one on Track 2, I leave em both                            
  S                                                  S S S S S S S S S S S S S S

----------------

----------------

----------------

----------------

----------------

----------------

----------------

----------------

----------------

----------------

--8
----------------

----------------

----------------
--8-8-8-8-8-8-8-8-8-8-8-8-8-8

----------------

----------------

----------------

----------------

----------------

--9
----------------

----------------

----------------
--9-9-9-9-9-9-9-9-9-9-9-9-9-9

----------------

----------------

----------------

----------------

----------------



  E  E  E  E  E  E  E  E       E  S S E  E  E  S S E  E     

----------------
----------||
----------------
--------------||

----------------
----------||
----------------
--------------||

----------------
----------||*
----------------
------------*||
--------------7-----7-----||*
----------------
------------*||
--9-----9-----5-----5-----||----------7--5---------7--5---||
--7-----7
----------------
-||---0--L-0-------0--L-0--------||


   S S S S S S S S S S S S S S S S    

----------------

----------------
----||

----------------

----------------
----||
*
----------------

----------------
--*||
*--5-5-5-5-5-5-5-5-5-5-5-5-5-5-5-5-*||
---7-7-7-7-7-7-7-7-7-7-7-7-7-7-7-7--||

----------------

----------------
----||


Not sure about this, on the GP version I put 2 possibilities
  S                                                  S S S S S S S S S S S S S S

----------------

----------------

----------------

----------------

----------------

----------------

----------------

----------------

----------------

----------------

--8
----------------

----------------

----------------
--8-8-8-8-8-8-8-8-8-8-8-8-8-8

----------------

----------------

----------------

----------------

----------------

--9
----------------

----------------

----------------
--9-9-9-9-9-9-9-9-9-9-9-9-9-9

----------------

----------------

----------------

----------------

----------------



   E  E   E  E   E  E   E  E      E  S S E  E  E  S S E  E   

----------------
---------------|
----------------
------------|

----------------
---------------|
----------------
------------|
--12-----12-----11-----11--L\--|
----------------
------------|

----------------
---------------|
----------------
------------|

----------------
---------------|---------7--5---------7--5--|

----------------
---------------|--0--L-0-------0--L-0-------|


Not sure about this, on the GP version I put 2 possibilities
  E                                     S S E  E  S S S S S S S S  

----------------

----------------

----------------

----------------
--|

----------------

----------------

----------------

----------------
--|

----------------

----------------

----------------

----------------
--|

----------------

----------------

----------------
--9-9-9-9-9-9-9-9-|

----------------

----------------
------------7--5--9-9-9-9-9-9-9-9-|
--0
----------------

----------------
-----L-0
----------------
-------|


                                    PM PM PM PM PM PM PM  
  S S S S S S S S E  E  E  E     E  E  E  E  E  E  E  E   

----------------
--------------|
----------------
----------|

----------------
--------------|
----------------
----------|

----------------
--------------|
----------------
----------|
--8-8-8-8-8-8-8-8-------------|
----------------
----------|
--9-9-9-9-9-9-9-9-9--9--9--9--|--2
----------------
-------|

----------------
--0--0--0--0--|--0--0--0--0--0--0--0--0--|


  PM PM PM PM PM PM             PM PM PM                
  E  E  E  E  E  E  E  E     E  E  E  E  E  E  E    E   

----------------
----------|
----------------
------------|

----------------
----------|
----------------
------------|

----------------
----------|
----------------
------------|

----------------
----------|
----------------
------------|

----------------
----1-----|--2-----------1--2--1br-----|
--0--0--0--0--0--0-----3--|--0--0--0--0-------------3--|


     PM PM PM                                    PM PM PM PM PM PM PM        
  E  E  E  E  E  E  E  E       E  E  E  E     E  E  E  E  E  E  E  E  E  E   

----------------
------------|--------------|
----------------

----------------
|

----------------
------------|--------------|
----------------

----------------
|

----------------
------------|--------------|
----------------

----------------
|

----------------
------------|--------------|
----------------

----------------
|
--2-----------1--2--4--4br--|--4--2--1-----|--2
----------------
-------1-----|
--0--0--0--0
----------------
|-----------3--|--0--0--0--0--0--0--0--0-----3--|


     PM PM PM                     PM PM PM                               
  E  E  E  E  E  E  E    E     E  E  E  E  E  E  E  E       E  E  E  E   

----------------
------------|
----------------
------------|--------------|

----------------
------------|
----------------
------------|--------------|

----------------
------------|
----------------
------------|--------------|

----------------
------------|
----------------
------------|--------------|
--2-----------1--2--1br-----|--2-----------1--2--4--4br--|--4--2--1-----|
--0--0--0--0-------------3--|--0--0--0--0
----------------
|-----------3--|


           PM PM    PM PM    PM PM                           
  E  E  E  S  S  E  S  S  E  S  S     Q    E  E  E  E  Q     

----------------

----------------
---|
----------------
--------|

----------------

----------------
---|
----------------
--------|

----------------

----------------
---|
----------------
--------|

----------------
-3--------3--------|--3
----------------
-----|
--2--2--2--------1--------1--------|--1----2--2--2----------|
--0--0--0--0--0-----0--0-----0--0--|-------0--0--0----------|


  Bass Line                                      
  W                     E  E  E  E  E  E  E  E   

----------------
---||
----------------
-----------|

----------------
---||
----------------
-----------|

----------------
---||*
----------------
----------|

----------------
---||*--9--9--9--8--8--8--7-----|

----------------
---||---7--7--7--7--7--7--7--7--|

----------------
---||---0--0--0--0--0--0--0--0--|


         PM       PM PM                                         
   E  E  E  E  E  S  S  Q     4x   E  S S E  E  E  S S E  E   4x

----------------
--------------||
----------------
--------------||

----------------
--------------||
----------------
--------------||

----------------
-------------*||*
----------------
------------*||

----------------
-------------*||*
----------------
------------*||
--10--7-----5--7--------7-----||----------7--5---------7--5---||
---0--0--0--0--0--0--0--0-----||---0--L-0-------0--L-0--------||


                                     PM       PM PM         
   E  E  E  E  E  E  E  E      E  E  E  E  E  S  S  Q     4x

----------------
-----------|
----------------
--------------||

----------------
-----------|
----------------
--------------||
*
----------------
----------|
----------------
-------------*||
*--9--9--9--8--8--8--7-----|
----------------
-------------*||
---7--7--7--7--7--7--7--7--|--10--7-----5--7--------7-----||
---0--0--0--0--0--0--0--0--|---0--0--0--0--0--0--0--0-----||


   S S S S S S S S S S S S S S S S    

----------------

----------------
----||

----------------

----------------
----||
*
----------------

----------------
--*||
*--5-5-5-5-5-5-5-5-5-5-5-5-5-5-5-5-*||
---7-7-7-7-7-7-7-7-7-7-7-7-7-7-7-7--||

----------------

----------------
----||



  S                                                  S S S S S S S S S S S S S S

----------------

----------------

----------------

----------------

----------------

----------------

----------------

----------------

----------------

----------------

--8
----------------

----------------

----------------
--8-8-8-8-8-8-8-8-8-8-8-8-8-8

----------------

----------------

----------------

----------------

----------------

--9
----------------

----------------

----------------
--9-9-9-9-9-9-9-9-9-9-9-9-9-9

----------------

----------------

----------------

----------------

----------------



  E  E  E  E  E  E  E  E       E  S S E  E  E  S S E  E     

----------------
----------||
----------------
--------------||

----------------
----------||
----------------
--------------||

----------------
----------||*
----------------
------------*||
--------------7-----7-----||*
----------------
------------*||
--9-----9-----5-----5-----||----------7--5---------7--5---||
--7-----7
----------------
-||---0--L-0-------0--L-0--------||


   S S S S S S S S S S S S S S S S    

----------------

----------------
----||

----------------

----------------
----||
*
----------------

----------------
--*||
*--5-5-5-5-5-5-5-5-5-5-5-5-5-5-5-5-*||
---7-7-7-7-7-7-7-7-7-7-7-7-7-7-7-7--||

----------------

----------------
----||


  
  S                                                  S S S S S S S S S S S S S S

----------------

----------------

----------------

----------------

----------------

----------------

----------------

----------------

----------------

----------------

--8
----------------

----------------

----------------
--8-8-8-8-8-8-8-8-8-8-8-8-8-8

----------------

----------------

----------------

----------------

----------------

--9
----------------

----------------

----------------
--9-9-9-9-9-9-9-9-9-9-9-9-9-9

----------------

----------------

----------------

----------------

----------------



   E  E   E  E   E  E   E  E    

----------------
---------------|

----------------
---------------|
--12-----12-----11-----11--L\--|

----------------
---------------|

----------------
---------------|

----------------
---------------|


  uhmmm maybe someone made a mistake here =P!                         
  E                                           S S E  E  E  S S E  E   

----------------

----------------

----------------

----------------
-----|

----------------

----------------

----------------

----------------
-----|

----------------

----------------

----------------

----------------
-----|

----------------

----------------

----------------
-----5---------------|

----------------

----------------

----------------
--7------------7--5--|
--0
----------------

----------------
-----------L-0-------0--L-0-------|


  E  S S E  E  S S S S S S S S    S S S S S S S S  E   E   E   E   

----------------
---------------|
----------------

----------------
--|

----------------
---------------|
----------------

----------------
--|

----------------
---------------|
----------------

----------------
--|
---------------9-9-9-9-9-9-9-9-|--8-8-8-8-8-8-8-8
----------------
-|
---------7--5--9-9-9-9-9-9-9-9-|--9-9-9-9-9-9-9-9-10--10--10--10--|
--0--L-0
----------------
-------|
----------------
---0---0---0---0--|


     PM PM PM PM PM PM PM    PM PM PM PM PM PM        
  E  E  E  E  E  E  E  E     E  E  E  E  E  E  E  E   

----------------
----------|
----------------
----------|

----------------
----------|
----------------
----------|

----------------
----------|
----------------
----------|

----------------
----------|
----------------
----------|
--2
----------------
-------|
----------------
----1-----|
--0--0--0--0--0--0--0--0--|--0--0--0--0--0--0-----3--|


     PM PM PM                     PM PM PM                               
  E  E  E  E  E  E  E    E     E  E  E  E  E  E  E  E       E  E  E  E   

----------------
------------|
----------------
------------|--------------|

----------------
------------|
----------------
------------|--------------|

----------------
------------|
----------------
------------|--------------|

----------------
------------|
----------------
------------|--------------|
--2-----------1--2--1br-----|--2-----------1--2--4--4br--|--4--2--1-----|
--0--0--0--0-------------3--|--0--0--0--0
----------------
|-----------3--|


     PM PM PM PM PM PM PM             PM PM PM                
  E  E  E  E  E  E  E  E  E  E     E  E  E  E  E  E  E    E   

----------------

----------------
|
----------------
------------|

----------------

----------------
|
----------------
------------|

----------------

----------------
|
----------------
------------|

----------------

----------------
|
----------------
------------|
--2
----------------
-------1-----|--2-----------1--2--1br-----|
--0--0--0--0--0--0--0--0-----3--|--0--0--0--0-------------3--|


     PM PM PM                                          PM PM    PM PM    PM PM  
  E  E  E  E  E  E  E  E       E  E  E  E     E  E  E  S  S  E  S  S  E  S  S   

----------------
------------|--------------|
----------------

----------------
---|

----------------
------------|--------------|
----------------

----------------
---|

----------------
------------|--------------|
----------------

----------------
---|

----------------
------------|--------------|
----------------
-3--------3--------|
--2-----------1--2--4--4br--|--4--2--1-----|--2--2--2--------1--------1--------|
--0--0--0--0
----------------
|-----------3--|--0--0--0--0--0-----0--0-----0--0--|


  Q    E  E  E  E  Q       E    E  E  E  E  S S S S E   

----------------
--------|
----------------
--------------|

----------------
--------|
----------------
--------------|

----------------
--------|
----------------
--------------|
--3
----------------
-----|
----------------
--------------|
--1----2--2--2----------|--7br--L--5--7-----7-7-1-1-1--|
-------0--0--0----------|--0----0--0--0-----0-0-0-0-0--|


  E  S S S S E  E  E  E  S S    E    E  E  E  E  S S S S E     E  S S S S E   

----------------
-------------|
----------------
--------------|
----------------
|

----------------
-------------|
----------------
--------------|
----------------
|

----------------
-------------|
----------------
--------------|
----------------
|

----------------
-------------|
----------------
--------------|
----------------
|
-----5-5-5-5-5--5-----7----7-|--7br--L--5--7-----7-7-1-1-1--|-----5-5-5-5-5--|
-----0-0-0-0-0--0-----0----0-|--0----0--0--0-----0-0-0-0-0--|-----0-0-0-0-0--|


                                                                        tr     
  E  E  E  E  S S E  S S E     H         Q       E  E  E  E  S S E  S S E      

----------------
------------|
----------------
-|
----------------
---------------|

----------------
------------|
----------------
-|
----------------
---------------|

----------------
------------|
----------------
-|
----------------
---------------|

----------------
------------|
----------------
-|
----------------
---------4(5)--|
--4--4--4--4--4-4-5--5-5-4--|--4~--------L----|--4--4--4--4--4-4-5--5-5-------|
--2--2--2--2--2-2-3--3-3-2--|
----------------
-|--2--2--2--2--2-2-3--3-3-------|


                                            tr                       
  E  E  H            E  E  E  E  S S E  S S E        H         Q     

----------------
--|
----------------
---------------|
----------------
-|

----------------
--|
----------------
---------------|
----------------
-|
--------6~--------|
----------------
---------------|
----------------
-|
--L--4------------|
----------------
---------4(5)--|
----------------
-|

----------------
--|--4--4--4--4--4-4-5--5-5-------|--4~--------L----|

----------------
--|--2--2--2--2--2-2-3--3-3-------|
----------------
-|


                         tr                        
  E  E  E  E  S S E  S S E        E  E  H          

----------------
---------------|
----------------
--|

----------------
---------------|
----------------
--|

----------------
---------------|--------6~--------|

----------------
---------4(5)--|--L--4------------|
--4--4--4--4--4-4-5--5-5-------|
----------------
--|
--2--2--2--2--2-2-3--3-3-------|
----------------
--|


    Clean                         Distorted                            
                                                                tr     
    E     E  E  Q    Q    E   8x  E         E  E  E  S S E  S S E      

|----------------
-------------||
----------------

----------------
------|
|
----------------
-------------||
----------------

----------------
------|
|*
----------------
-----------*||
----------------

----------------
------|
|*-----------4-------5----L--*||
----------------

----------------
4(5)--|
|---------4
----------------
---||--4---------4--4--4--4-4-5--5-5-------|
|---2-----------0-------------||--2---------2--2--2--2-2-3--3-3-------|


                                           tr                        
  H         Q       E  E  E  E  S S E  S S E        E  E  H          

----------------
-|
----------------
---------------|
----------------
--|

----------------
-|
----------------
---------------|
----------------
--|

----------------
-|
----------------
---------------|--------6~--------|

----------------
-|
----------------
---------4(5)--|--L--4------------|
--4~--------L----|--4--4--4--4--4-4-5--5-5-------|
----------------
--|

----------------
-|--2--2--2--2--2-2-3--3-3-------|
----------------
--|


                         tr                       
  E  E  E  E  S S E  S S E        H         Q     

----------------
---------------|
----------------
-|

----------------
---------------|
----------------
-|

----------------
---------------|
----------------
-|

----------------
---------4(5)--|
----------------
-|
--4--4--4--4--4-4-5--5-5-------|--4~--------L----|
--2--2--2--2--2-2-3--3-3-------|
----------------
-|


                         tr                        
  E  E  E  E  S S E  S S E        E  E  H          

----------------
---------------|
----------------
--|

----------------
---------------|
----------------
--|

----------------
---------------|--------6~--------|

----------------
---------4(5)--|--L--4------------|
--4--4--4--4--4-4-5--5-5-------|
----------------
--|
--2--2--2--2--2-2-3--3-3-------|
----------------
--|


    Clean                       
    E     E  E  Q    Q    E   8x

|----------------
-------------||
|
----------------
-------------||
|*
----------------
-----------*||
|*-----------4-------5----L--*||
|---------4
----------------
---||
|---2-----------0-------------||



Since the timing I put on the GP sucks, this part goes without it
   Distorted, w/Wah                               
   <                                              

----------------

----------------

----------------
-|

----------------

----------------

----------------
-|
--11~--------------11~--11~--11~
----------------
-|

----------------

----------------
-----9br----Lbr--|

----------------

----------------

----------------
-|

----------------

----------------

----------------
-|



----------------

----------------

----------------

----------------
-|

----------------

----------------

----------------

----------------
-|

----------------

----------------

----------------

----------------
-|
--L
----------------

----------------

----------------
-7------------|

----------------

----------------

----------------
-------9~--------|

----------------

----------------

----------------

----------------
-|


   <                                                     

----------------

----------------
-----|
----------------
--|

----------------

----------------
-----|
----------------
--|
--11~--11~--11~--11~-----9br----Lbr--|--L---------------|

----------------

----------------
-----|-----7~-----------|

----------------

----------------
-----|
----------------
--|

----------------

----------------
-----|
----------------
--|



----------------

----------------

----------------
-|
----------------
--|

----------------

----------------

----------------
-|
----------------
--|
--11~--------------11~--11~--11~
----------------
-|
----------------
--|

----------------

----------------
-----9br----Lbr--|--L--7------------|

----------------

----------------

----------------
-|--------9~--------|

----------------

----------------

----------------
-|
----------------
--|


   <                                                     

----------------

----------------
-----|
----------------
--|

----------------

----------------
-----|
----------------
--|
--11~--11~--11~--11~-----9br----Lbr--|--L---------------|

----------------

----------------
-----|-----7~-----------|

----------------

----------------
-----|
----------------
--|

----------------

----------------
-----|
----------------
--|



----------------

----------------

----------------

----------------
--------|

----------------

----------------

----------------
------------10--12----L-|
--11
----------------

----------------
----------11--11--11
----------------
|

----------------

----------------

----------------

----------------
--------|

----------------

----------------

----------------

----------------
--------|

----------------

----------------

----------------

----------------
--------|



---9-------9-------9------|----------------
--|
--12br----12br----12br----|--9b--------------|

----------------
----------|----------11------|

----------------
----------|
----------------
--|

----------------
----------|
----------------
--|

----------------
----------|
----------------
--|




--14-15-17--15-14----15p-14----------------

----------------
--|

----------------
--17--------17-15-14h-15p-14h-15-------------|

----------------

----------------

----------------
-----14--16--|

----------------

----------------

----------------
-16----------|

----------------

----------------

----------------
-------------|

----------------

----------------

----------------
-------------|



----------------

----------------

----------------

----------------
-----14-|

----------------

----------------
-----------14-15-17p-15p-14----14-15----|
--16b
----------------
--------------L
----------------
--------16----------|

----------------

----------------

----------------

----------------
--------|

----------------

----------------

----------------

----------------
--------|

----------------

----------------

----------------

----------------
--------|



--15-14h-15p-14----14-18-19--18--15--14br----|
----------------
17
----------------
-----------|

----------------

----------------
-------------|

----------------

----------------
-------------|

----------------

----------------
-------------|

----------------

----------------
-------------|



----------------

----------------

----------------
-----12p-10----9h-10-9----9-----

----------------

----------------

----------------
------------12---------12---12p-

----------------

----------------

----------------

----------------

----------------

----------------

----------------

----------------

----------------

----------------

----------------

----------------

----------------

----------------

----------------

----------------

----------------

----------------

----------------

----------------



                                     w/extreme Wah                                 

----------------

----------------
-|--12b---9--12b--9--12b--Lpbr-9-11--12b--|
--12b--Lpbr--10
----------------
--|
----------------

----------------
--------|

----------------
-11~----L--------|
----------------

----------------
--------|

----------------

----------------
-|
----------------

----------------
--------|

----------------

----------------
-|
----------------

----------------
--------|

----------------

----------------
-|
----------------

----------------
--------|



--L--9-12-12b-12pb-9-12-12b-12pb-9-12-12b--Lpbr-9-|
----------------

----------------

----------------
--|

----------------

----------------

----------------
--|

----------------

----------------

----------------
--|

----------------

----------------

----------------
--|

----------------

----------------

----------------
--|



--17b--Lpbr--17b---Lpbr--17b---Lpbr--17-------|
----------------

----------------
---------17b--|

----------------

----------------
--------------|

----------------

----------------
--------------|

----------------

----------------
--------------|

----------------

----------------
--------------|



----------------

----------------

----------------

----------------
---|
--L--Lpbr-14-17b-Lpbr-17p-14-----14-17p-14-17b-17p-14----14-17p-14-|

----------------
-------------16b
----------------
------16-----------|

----------------

----------------

----------------

----------------
---|

----------------

----------------

----------------

----------------
---|

----------------

----------------

----------------

----------------
---|



----------------

----------------

----------------

----------------
----------|
-----14-17p-14----14-17p-14----14-17p-14----14-17p-14----14-17p-14-16p-14-|
--16-----------16-----------16-----------16-----------16
----------------
--|

----------------

----------------

----------------

----------------
----------|

----------------

----------------

----------------

----------------
----------|

----------------

----------------

----------------

----------------
----------|



----------------

----------------

----------------
--------|
-----14
----------------

----------------
--14-17----14-17-|
--17----16-14-16-14----14-16-14----14-16-------16-------|

----------------
----16----------16
----------------
------|

----------------

----------------

----------------
--------|

----------------

----------------

----------------
--------|



----------------

----------------

----------------

----------------

----------------

--14
----------------

----------------

----------------
-17b----17p-14-17p-14-------

----------------

----------------

----------------

----------------
----------16b---

----------------

----------------

----------------

----------------

----------------

----------------

----------------

----------------

----------------

----------------

----------------

----------------

----------------

----------------

----------------



  S S S S S S S S S S S S S S S S    S S S S S S S S S S S S S S S S  

----------------

----------------
--|
----------------

----------------
--|

----------------

----------------
--|
----------------

----------------
--|

----------------

----------------
--|
----------------

----------------
--|
--4-4-4-4-4-4-4-4-7-7-6-6-4-4-4-4-|--4-4---------4-4-7-7-6-6-4-4-4-4-|

----------------

----------------
--|------4-4-4-4
----------------
-----|

----------------

----------------
--|
----------------

----------------
--|


  S S S S S S S S S S S S S S S S    S S S S S S S S S S S S S S S S  

----------------

----------------
--|
----------------

----------------
--|

----------------

----------------
--|
----------------

----------------
--|

----------------

----------------
--|
----------------

----------------
--|
--4-4-------------7-7-6-6-4-4-4-4-|--4-4-------------7-7-6-6-4-4-4-4-|
------5-5-5-5-4-4
----------------
-|------6-6-6-6-4-4
----------------
-|

----------------

----------------
--|
----------------

----------------
--|


  S S S S S S S S S S S S S S S S  

----------------

----------------
--|

----------------

----------------
--|

----------------

----------------
--|
--6p4-----7p5-----8p6-----9p7-----|
------6p4-----7p5-----8p6-----9p7-|

----------------

----------------
--|


   S S  S S  S S  S S  S  S  S  S  S  S  S  S    S S E  S S E  S S E  S S E   

----------------

----------------
--------------|
----------------
--------------|

----------------

----------------
--------------|
----------------
--------------|

----------------

----------------
--------------|
----------------
--------------|
--10p8------11p9------12p10-------13p11-------|------5------5------5------5--|
-------10p8------11p9-------12p10-------13p11-|------3------3------3------3--|

----------------

----------------
--------------|--2-2----2-2----2-2----2-2----|


  Q     S  S  S  S  S S  S  S  S  S  S S  

-------13p-8-11p-8----8-13p-8-11p-8----8-|
----------------
---11---------------11---|

----------------

----------------
---------|

----------------

----------------
---------|

----------------

----------------
---------|

----------------

----------------
---------|


   S  S  S S  S  S  S  S  S S  S  S  S  S  S S  

--13p-8----8-13p-8-11p-8----8-13p-8-11p-8----8-|
--------11---------------11---------------11---|
----------------

----------------
---------------|

----------------

----------------
---------------|

----------------

----------------
---------------|

----------------

----------------
---------------|


   S   S  S   S  S  S  S   S  S   S  S  S  S   S  S   S  

--16p-11-14p-11----11-16p-11-14p-11----11-16p-11-14p-11-|
----------------
14
----------------
--14
----------------
--|

----------------

----------------

----------------
--------|

----------------

----------------

----------------
--------|

----------------

----------------

----------------
--------|

----------------

----------------

----------------
--------|


   E   E      E   E      E     E   Q        E  S S E  E  E  S S E  E   

----------------

----------------
--17b----|
----------------
------------|
--17b--Lpbr--17b--Lpbr--17br--14---------|
----------------
------------|

----------------

----------------
---------|
----------------
------------|

----------------

----------------
---------|---------5--4---------9--7--|

----------------

----------------
---------|
----------------
------------|

----------------

----------------
---------|--0--L-0-------0--L-0-------|


  E  S S E  E  E  S S  E   E     E  S S E  E  E  S S E  E   

----------------
--------------|
----------------
------------|

----------------
--------------|
----------------
------------|
---------9--7---------12--11--|
----------------
------------|

----------------
--------------|---------5--4---------9--7--|

----------------
--------------|
----------------
------------|
--0--L-0-------0--L-0---------|--0--L-0-------0--L-0-------|


   E   E   E   E   E   E   E  E      W                   W                 

--15--14--17--15--19--17--19--L\--|----------------
---|
----------------
---|

----------------

----------------
--|
----------------
---|
----------------
---|

----------------

----------------
--|
----------------
---|
----------------
---|

----------------

----------------
--|
----------------
---|
----------------
---|

----------------

----------------
--|
----------------
---|
----------------
---|

----------------

----------------
--|
----------------
---|
----------------
---|


                                      PM       PM PM         
    E  E  E  E  E  E  E  E      E  E  E  E  E  S  S  Q     4x

|----------------
-----------|
----------------
--------------||
|
----------------
-----------|
----------------
--------------||
|*
----------------
----------|
----------------
-------------*||
|*--9--9--9--8--8--8--7-----|
----------------
-------------*||
|---7--7--7--7--7--7--7--7--|--10--7-----5--7--------7-----||
|---0--0--0--0--0--0--0--0--|---0--0--0--0--0--0--0--0-----||


   E  S S E  E  E  S S E  E        S S S S S S S S S S S S S S S S    

----------------
--------------||
----------------

----------------
----||

----------------
--------------||
----------------

----------------
----||
*
----------------
------------*||*
----------------

----------------
--*||
*
----------------
------------*||*--5-5-5-5-5-5-5-5-5-5-5-5-5-5-5-5-*||
----------7--5---------7--5---||---7-7-7-7-7-7-7-7-7-7-7-7-7-7-7-7--||
---0--L-0-------0--L-0--------||
----------------

----------------
----||


  S S S S S S S S S S S S S S S S    E  E  E  E  E  E  E  E   

----------------

----------------
--|
----------------
----------|

----------------

----------------
--|
----------------
----------|
--8-8-8-8-8-8-8-8-8-8-8-8-8-8-8-8-|
----------------
----------|

----------------

----------------
--|--------------7-----7-----|
--9-9-9-9-9-9-9-9-9-9-9-9-9-9-9-9-|--9-----9-----5-----5-----|

----------------

----------------
--|--7-----7
----------------
-|


    E  S S E  E  E  S S E  E        S S S S S S S S S S S S S S S S    

|----------------
--------------||
----------------

----------------
----||
|
----------------
--------------||
----------------

----------------
----||
|*
----------------
------------*||*
----------------

----------------
--*||
|*
----------------
------------*||*--5-5-5-5-5-5-5-5-5-5-5-5-5-5-5-5-*||
|----------7--5---------7--5---||---7-7-7-7-7-7-7-7-7-7-7-7-7-7-7-7--||
|---0--L-0-------0--L-0--------||
----------------

----------------
----||


  S S S S S S S S S S S S S S S S     E  E   E  E   E  E   E  E    

----------------

----------------
--|
----------------
---------------|

----------------

----------------
--|
----------------
---------------|
--8-8-8-8-8-8-8-8-8-8-8-8-8-8-8-8-|--12-----12-----11-----11--L\--|

----------------

----------------
--|
----------------
---------------|
--9-9-9-9-9-9-9-9-9-9-9-9-9-9-9-9-|
----------------
---------------|

----------------

----------------
--|
----------------
---------------|


  E  S S E  E  E  S S E  E     E  S S E  E  S S S S S S S S  

----------------
------------|
----------------
---------------|

----------------
------------|
----------------
---------------|

----------------
------------|
----------------
---------------|

----------------
------------|---------------9-9-9-9-9-9-9-9-|
---------7--5---------7--5--|---------7--5--9-9-9-9-9-9-9-9-|
--0--L-0-------0--L-0-------|--0--L-0
----------------
-------|


                                    PM PM PM PM PM PM PM  
  S S S S S S S S E  E  E  E     E  E  E  E  E  E  E  E   

----------------
--------------|
----------------
----------|

----------------
--------------|
----------------
----------|

----------------
--------------|
----------------
----------|
--8-8-8-8-8-8-8-8-------------|
----------------
----------|
--9-9-9-9-9-9-9-9-9--9--9--9--|--2
----------------
-------|

----------------
--0--0--0--0--|--0--0--0--0--0--0--0--0--|


  PM PM PM PM PM PM             PM PM PM                
  E  E  E  E  E  E  E  E     E  E  E  E  E  E  E    E   

----------------
----------|
----------------
------------|

----------------
----------|
----------------
------------|

----------------
----------|
----------------
------------|

----------------
----------|
----------------
------------|

----------------
----1-----|--2-----------1--2--1br-----|
--0--0--0--0--0--0-----3--|--0--0--0--0-------------3--|


     PM PM PM                                    PM PM PM PM PM PM PM        
  E  E  E  E  E  E  E  E       E  E  E  E     E  E  E  E  E  E  E  E  E  E   

----------------
------------|--------------|
----------------

----------------
|

----------------
------------|--------------|
----------------

----------------
|

----------------
------------|--------------|
----------------

----------------
|

----------------
------------|--------------|
----------------

----------------
|
--2-----------1--2--4--4br--|--4--2--1-----|--2
----------------
-------1-----|
--0--0--0--0
----------------
|-----------3--|--0--0--0--0--0--0--0--0-----3--|


     PM PM PM                     PM PM PM                               
  E  E  E  E  E  E  E    E     E  E  E  E  E  E  E  E       E  E  E  E   

----------------
------------|
----------------
------------|--------------|

----------------
------------|
----------------
------------|--------------|

----------------
------------|
----------------
------------|--------------|

----------------
------------|
----------------
------------|--------------|
--2-----------1--2--1br-----|--2-----------1--2--4--4br--|--4--2--1-----|
--0--0--0--0-------------3--|--0--0--0--0
----------------
|-----------3--|


    The PMd 0s aint really there but I dont have a wah                          
                                                             PM PM    PM PM    P
    E                                                  E  E  S  S  E  S  S  E  S

|----------------

----------------

----------------

----------------
---------------
|
----------------

----------------

----------------

----------------
---------------
|*
----------------

----------------

----------------

----------------
--------------
|*
----------------

----------------

----------------

----------------
-3--------3---
|---2
----------------

----------------

----------------
--2--2--------1--------1---
|---0
----------------

----------------

----------------
--0--0--0--0-----0--0-----0


                PM PM PM PM PM PM                                  
  Q    E  E  E  S  S  S  S  S  S   4x  Q    E  E  E  E  H          

----------------

----------------
---||
----------------
------------||

----------------

----------------
---||
----------------
------------||

----------------

----------------
--*||
----------------
------------||
--3
----------------
---------------*||--3
----------------
---------||
--1----2--2--2
----------------
-----||--1----2--2--2--------------||
-------0--0--0--0--0--0--0--0--0---||-------0--0--0--------------||




Duration Legend
---------------
W - whole
H - half
Q - quarter
E - 8th
S - 16th
T - 32nd
X - 64th
. - note dotted
|-n-|  - n-tuplets


Tablature Legend

----------------

L - tied note
x - dead note
g - grace note
(n) - ghost note
> - accentuded note
NH - natural harmonic
AH - artificial harmonic
TH - tapped harmonic
SH - semi harmonic
PH - pitch harmonic
h - hammer on
p - pull off
b - bend
br - bendRelease
pb - preBend
pbr - preBendRelease
brb - bendReleaseBend
\n/ - tremolo bar dip
\n - tremolo bar dive
-/n - tremolo bar Release up
/n\ - tremolo bar inverted dip
/n - tremolo bar return
-\n - tremolo bar Release down
S - shift slide
s - legato slide
/ -  slide into from below or out of upwards
\ -  slide into from above or out of downwards
~ - vibrato
W - wide vibrato
tr - trill
TP - tremolo picking
T - tapping
S - slap
P - pop
< - fade in
^ - brush up
v - brush down
  • 1
  • 2
  • 3
  • 4
  • 5
  • 6
  • 7
  • 8
  • 9
  • 10
  • 11
  • 12
    Acordes para:

      0 comentários

        mostrar mais comentários

        Conseguiu tocar?

        2tocaram0ainda não

        Grave um vídeo tocando Cyanide e mande pra gente!

        00:00 / 00:00
        outros vídeos desta música
        repetirqualidadeautomática
        • automática
        Outro vídeos desta música
          00:00 / 00:00
          automática
          • automática
          Acordes para:violão e guitarra
          dificuldadeexibiçõescontribuições
          1 versão de Tab de baixoexibiçõescontribuições
          1 versão de Tab de bateriaexibiçõescontribuições
          1 versão de Guitar Proformatodownloadscontribuição
          fecharplay/pause subir/descer velocidade
            Acordes para:violão e guitarra
            acordes
            fechar
            OK