Cifra Club

Enter Sandman

Metallica

Cifra: Principal (violão e guitarra)
tom: E
[Intro]

[Guitarra] 1)

Parte 1 De 5

E|----------------------------------------------------|
B|----------------------------------------------------|
G|-------0--------------0-----------------------------|
D|-----2--------2-----2-------2-----------------------|
A|----------1-0-----------1-0-------------------------|
E|-0---------------0----------------------------------|

Parte 2 De 5

 E5
E|----------------------------------------------------|
B|----------------------------------------------------|
G|----------------------------------------------------|
D|----------------------------------------------------|
A|-/7-------------------------------------------------|
E|----0-0-0-0-0-0-0-----------------------------------|
      P.m

Parte 3 De 5

E|----------------------------------------------------|
B|----------------------------------------------------|
G|----------------------------------------------------|
D|----------------------------------------------------|
A|-/7---------------/7--------------------------------|
E|----0-0-0-0-0-0-0-----------------------------------|
      P.m

Parte 4 De 5

                F5
E|----------------------------------------------------|
B|----------------------------------------------------|
G|----------------------------------------------------|
D|----------------------------------------------------|
A|------7---------3-----------------------------------|
E|-0--0---6-0-0-0-1-----------------------------------|
            Bp.m

Parte 5 De 5

               F5
E|----------------------------------------------------|
B|----------------------------------------------------|
G|----------------------------------------------------|
D|----------------------------------------------------|
A|---7------------3-----------------------------------|
E|---0----6-5-0-0-1-----------------------------------|

Parte 5 De 5Variação

E|----------------------------------------------------|
B|----------------------------------------------------|
G|----------------------------------------------------|
D|----------------------------------------------------|
A|------7---------------------------------------------|
E|-0-0----6-5-0-0-------------------------------------|

[Intro] 2]

[Parte 1  de 2]

   E5
E|----------------------------------------------------|
B|----------------------------------------------------|
G|----------------------------------------------------|
D|------------x---------------------------------------|
A|-2---/7-----x---2---/7-----x-2----/7----------------|
E|-0-0----6-5-x---0-0----6-5-x-0-0--------------------|

Parte 2 De 2

            G5   F#5   G5 F#5
E|----------------------------------------------------|
B|----------------------------------------------------|
G|----------------------------------------------------|
D|------x---------------------------------------------|
A|------x-----5----4---4-5--4-------------------------|
E|--6-5-x-----3-0--2-0-2-3--2-------------------------|

Parte 2 De 2Variação

          G5   F#5   G5 F#5
E|----------------------------------------------------|
B|----------------------------------------------------|
G|----------------------------------------------------|
D|------x---------------------------------------------|
A|------x---5----4---4-5--4---------------------------|
E|--6-5-x---3-0--2-0-2-3--2---------------------------|

[Primeira Parte]

Parte 1 De 2

                 F5              F5
E|----------------------------------------------------|
B|----------------------------------------------------|
G|----------------------------------------------------|
D|----------------------------------------------------|
A|---------------3---------------3--------------------|
E|-0-0-0-0-0-0-0-1-0-0-0-0-0-0-0-1--0-0-0-------------|

Parte 2 De 2

             G5   F#5   G5 F#5
E|----------------------------------------------------|
B|----------------------------------------------------|
G|----------------------------------------------------|
D|----------------------------------------------------|
A|-----------5----4---4-5--4--------------------------|
E|--0-0-0-0--3-0--2-0-2-3--2--------------------------|

E5                          F5
   Say your prayers, little one
                  F5
Don't forget, my son
                G5  F#5 G5 F#5
To include everyone
E5                       F5
   Tuck you in, warm within
                    F5
Keep you free from sin
                      G5  F#5 G5 F#5
Till the Sandman, he comes

Yeah!

Segunda Parte

 F#m
E|----------------------------------------------------|
B|----------------------------------------------------|
G|-------2--------------2-----------------------------|
D|-----4--------4-----4-------4-----------------------|
A|----------3-2-----------3-2-------------------------|
E|-2---------------2----------------------------------|

  F#m
Sleep with one eye open

Gripping your pillow tight

[Refrão - Parte 1 de 4]

F#5      C5 B5
E|----------------------------------------------------|
B|----------------------------------------------------|
G|----------------------------------------------------|
D|----x-----5/4---x--------x---5/4--------------------|
A|-4--x-----3/2---x---4-4--x---3/2--------------------|
E|-2--x-----------x---2-2--x--------------------------|


[Refrão - Parte 2 de 4]

 F#5      C5 B5
E|----------------------------------------------------|
B|----------------------------------------------------|
G|-------------------------2------4-0-----------------|
D|----x-----5/4------2-5-2---2------------------------|
A|-4--x-----2/3---2-----------------------------------|
E|-2--x-----------0-----------------------------------|

[Refrão - Parte 3 de 4]

 F#5      C5 B5
E|----------------------------------------------------|
B|----------------------------------------------------|
G|-----------------------------2----------------------|
D|----x-----5/2------2-5-2-5-2---2--------------------|
A|-4--x-----3/2---2-----------------------------------|
E|-2--------------0-----------------------------------|

[Refrão - Parte 4 de 4]

 G5   F#5   G5 F#5
E|----------------------------------------------------|
B|----------------------------------------------------|
G|----------------------------------------------------|
D|----------------------------------------------------|
A|-5----4---4-5--4------------------------------------|
E|-3-0--2-0-2-3--2------------------------------------|

F#5 C5 B5  
  Exit
 F#5  C5 B5
Light

F#5 C5 B5  
Enter
 E5
Night
 F#5 C5 B5  E5
Take my    hand
 G5   F#5     G5  F#5  E5
We're off to never    land

[Frase 1 - antes do início da primeira parte]

E|----------------------------------------------------|
B|--12b------12--14--14b16r14------12--14b--14b-------|
G|--12b------12--14--14b16r14------12--14b--14b-------|
D|-------14--------------------12---------------------|
A|----------------------------------------------------|
E|----------------------------------------------------|

[Primeira Parte]

[Frase 2 - antes da repetição da primeira parte]

E|----------------------------------------------------|
B|--------------12b13--12b13--12b13-------------------|
G|--------------12b13--12b13--12b13-------------------|
D|------------------------------------14~-------------|
A|----------------------------------------------------|
E|-0-0-0-0--------------------------------------------|


E5                            F5
 Something's wrong, shut the light
                  F5
Heavy thoughts tonight
                          G5  F#5 G5 F#5
And they aren't of snow white

Dreams of war
            F5
Dreams of liars
                    F5
Dreams of dragon's fire
                         G5  F#5 G5 F#5
And of things that will bite

Yeah!

[Segunda Parte]

  F#m
Sleep with one eye open

Gripping your pillow tight

[Refrão]

F#5 C5 B5  
  Exit
 F#5  C5 B5
Light

F#5 C5 B5  
Enter
 E5
Night
 F#5 C5 B5  E5
Take my    hand
 G5   F#5     G5  F#5  E5
We're off to never    land

[Solo]

Parte 1 De 17

E|----------------------------------------------------|
B|-15------15---15---12-------------------------------|
G|-14b16--b16--b16r--14b16----------------------------|
D|----------------------------------------------------|
A|----------------------------------------------------|
E|----------------------------------------------------|

Parte 2 De 17

E|-----------------------12-----12--------------------|
B|-15------15---15-------15b17--15b17-----------------|
G|-14b16--b16--b16r14p12------------------------------|
D|----------------------------------------------------|
A|----------------------------------------------------|
E|----------------------------------------------------|

Parte 3 De 17

E|----------------------------------------------------|
B|----------------------------------------------------|
G|-12/14-14-14-14\12-12-12-12/14-14-14-14\12-12-12----|
D|----------------------------------------------------|
A|-10/12-12-12-12\10-10-10-10/12-12-12-12\10-10-10----|
E|----------------------------------------------------|

Parte 4 De 17
E|----------------------------------------------------|
B|----------------------------------------------------|
G|-14p12----------------------------------------------|
D|-------14-14p12-------------------------------------|
A|----------------14-14p12----------------------------|
E|--------------------------15--12~~\-----------------|

Parte 5 De 17

E|-------12-12-------12-12-------12-12-------12-12----|
B|-15b17-------15b17-------15b17-------15b17----------|
G|----------------------------------------------------|
D|----------------------------------------------------|
A|----------------------------------------------------|
E|----------------------------------------------------|

Parte 6 De 17

E|-------12-12-------12-12-------12-12----------------|
B|-15b17-------15b17-------15b17-------15b17----------|
G|----------------------------------------------------|
D|----------------------------------------------------|
A|----------------------------------------------------|
E|----------------------------------------------------|

Parte 7 De 17

E|-12h15p12----12h15p12----12h15p12----12h15p12-------|
B|----------15----------15----------15----------15----|
G|----------------------------------------------------|
D|----------------------------------------------------|
A|----------------------------------------------------|
E|----------------------------------------------------|

Parte 8 De 17

E|-12h15/17p14----17p14----14p17/19p15----------------|
B|-------------15-------15----------------------------|
G|----------------------------------------------------|
D|----------------------------------------------------|
A|----------------------------------------------------|
E|----------------------------------------------------|

Parte 9 De 17

E|----19p15----15h19/22p17-0-22p17-0-22p17--22b24-----|
B|-17-------17----------------------------------------|
G|----------------------------------------------------|
D|----------------------------------------------------|
A|----------------------------------------------------|
E|----------------------------------------------------|

Parte 10 De 17

E|----------------------------------------------------|
B|-10b--10b-10b-10b--10b------------10~-10-8p7---8p7--|
G|--9b---9b--9b--9b---9b-7--------7------------9------|
D|-------------------------9~-7h9---------------------|
A|----------------------------------------------------|
E|----------------------------------------------------|

Parte 11 De 17

E|----------------------------------------------------|
B|---7------------------------------------------------|
G|-9---9p7---7-9p7------------------------------------|
D|---------9---------9p7---7-9p7----------------------|
A|-----------------------9-------9p8p7----------------|
E|-------------------------------------10~-7-5~-------|

Parte 12 De 17

E|----------------------------------------------------|
B|----------------------------------------------------|
G|-16b18-14-------14-16b18-14-------14-16b18-14-------|
D|----------16-16-------------16-16-------------16-16-|
A|----------------------------------------------------|
E|----------------------------------------------------|

Parte 13 De 17

E|----------------------------------------------------|
B|----------------------------------------------------|
G|--14-16b18-14-------14------------------------------|
D|--------------16-16---------------------------------|
A|----------------------------------------------------|
E|----------------------------------------------------|

Parte 14 De 17
                                        V v v v v
E|----------------------------------------------------|
B|-------17-------17-17----17----17-----16~~----------|
G|-16b18----16b18----16b18-16b18-16b18r---------------|
D|----------------------------------------------------|
A|----------------------------------------------------|
E|----------------------------------------------------|

Parte 15 De 17

E|-21p17-0-21p17-0-21p17-0-21p17-0-21p17-0-21p17-0----|
B|----------------------------------------------------|
G|----------------------------------------------------|
D|----------------------------------------------------|
A|----------------------------------------------------|
E|----------------------------------------------------|

Parte 16 De 17

E|-22b24-b24-b24----22b24-b24-b24----22b24~~~~~-------|
B|----------------------------------------------------|
G|----------------------------------------------------|
D|----------------------------------------------------|
A|----------------------------------------------------|
E|----------------------------------------------------|

Parte 17 De 17

E|-5p3p0----------------------------------------------|
B|-------5-5p3p0--------------------------------------|
G|---------------4-4p2p0---2h4p2p0--------------------|
D|-----------------------5---------2| 0h2p0------------|
A|-----------------------------------------4-0-0h2~~~-|
E|----------------------------------------------------|

[Terceira Parte]

[Guitarra 2 - fazendo junto do riff introdução]

E|----------------------------------------------------|
B|----------------------------------------------------|
G|---------12-----------------------------------------|
D|--14--14--------------------------------------------|
A|----------------------------------------------------|
E|----------------------------------------------------|

(Guitarra 2 - fazendo junto do riff da segunda parte)

E|----------------------------------------------------|
B|----------------------------------------------------|
G|---------14-----------------------------------------|
D|--16--16--------------------------------------------|
A|----------------------------------------------------|
E|----------------------------------------------------|

E|----------------------------------------------------|
B|----------------------------------------------------|
G|----------------------------------------------------|
D|----------------------------------------------------|
A|-4-4-4-4-4-4-4-4-4-4-4-4-4-4-4-4-4-4----------------|
E|-2-2-2-2-2-2-2-2-2-2-2-2-2-2-2-2-2-2----------------|


Now I lay me down to sleep

Pray the lord my soul to keep

If I die before I wake

Pray the lord my soul to take

Hush little baby, don't say a word

And never mind that noise you heard

It's just the beast under your bed

In your closet, in your head

[Refrão]

F#5 C5 B5  
  Exit
 F#5  C5 B5
Light

F#5 C5 B5  
Enter
 E5
Night
 F#5 C5 B5  E5
Take my    hand

F#5 C5 B5  
  Exit
 F#5  C5 B5
Light

F#5 C5 B5  
Enter
 E5
Night
 F#5 C5 B5  E5
Take my    hand
 G5   F#5     G5  F#5  E5
We're off to never    land

[Final]

Parte 1 De 6

   E5
E|----------------------------------------------------|
B|----------------------------------------------------|
G|----------------------------------------------------|
D|---------------x------------------------------------|
A|-2--2---/7-----x---2---/7-----x---------------------|
E|-0--0-0----6-5-x---0-0----6-5-x---------------------|

[Parte 2 de 6] X2

   E5
E|----------------------------------------------------|
B|----------------------------------------------------|
G|----------------------------------------------------|
D|------------x---------------------------------------|
A|-2---/7-----x---2---/7-----x------------------------|
E|-0-0----6-5-x---0-0----6-5-x------------------------|


[Parte 3 de 6]

          G5   F#5   G5 F#5
E|----------------------------------------------------|
B|----------------------------------------------------|
G|----------------------------------------------------|
D|------------x---------------------------------------|
A|-2---/7-----x---5----4---4-5--4---------------------|
E|-0-0----6-5-x---3-0--2-0-2-3--2---------------------|

Parte 4 De 6

                 F5
E|----------------------------------------------------|
B|----------------------------------------------------|
G|----------------------------------------------------|
D|----------------------------------------------------|
A|------/7---------3----------------------------------|
E|-0-0-----6-5-0-0-1----------------------------------|

Parte 5 De 6

                F5
E|----------------------------------------------------|
B|----------------------------------------------------|
G|----------------------------------------------------|
D|----------------------------------------------------|
A|------7---------3-----------------------------------|
E|-0-0----6-0-0-0-1-----------------------------------|

Parte 6 De 6

E|----------------------------------------------------|
B|----------------------------------------------------|
G|----------------------------------------------------|
D|----------------------------------------------------|
A|------/7--------------------------------------------|
E|-0-0-----0-0-0-0-0----------------------------------|
00:00 / 00:00
Outros vídeos desta música
Repetir
Outros vídeos desta música
Composição de James Hetfield / Jason Newsted / Kirk Hammett / Lars Ulrich
Colaboração e revisão:
1.628.377 exibições
  • Simplificar cifra
    • ½ Tom
    • A
    • Bb
    • B
    • C
    • Db
    • D
    • Eb
    • E
    • F
    • F#
    • G
    • Ab
  • Adicionar à lista

    0 comentários

    Ver todos os comentários

    Entre para oCifra Club PRO

    Tenha acesso a benefícios exclusivos no App e no Site

    • Chega de anúncios

    • Prioridade de compra em lançamentos

    • Mais recursos no app do Afinador

    • Atendimento Prioritário

    • Descontos nos produtos Cifra Club

    • Ajude a produzir mais conteúdo

    00:00 / 00:00
    Capítulos
    • Início
    • Tocando a música
    • Configuração dos Efeitos
    • Acordes da Introdução
    • Tocando Introdução e Primeira Parte
    • Ensinando Introdução
    • Acordes da Segunda Parte e do Refrão
    • Ensinando Primeira Parte
    • Tocando Segunda Parte e Refrão
    • Ensinando Segunda Parte
    • Ensinando Refrão
    • Tocando Solo
    • Ensinando Solos
    • Tocando Terceira Parte e Final
    • Ensinando Terceira Parte
    • Ensinando Final
    • Encerramento

    Cifra Club Pro

    Aproveite o Cifra Club com benefícios exclusivos e sem anúncios
    Cifra Club Pro
    Aproveite o Cifra Club com benefícios exclusivos e sem anúncios
    OK