Cifra Club

Aprenda

Green Hell

Metallica

Cifra: Principal (violão e guitarra)
tom: C
(riff 1)
      s  s  s  s  s  s  s  s  s  s  s  s  s  s  s  s  s  s  s  s  s  s
||----------------------------------------------------------------------||
||----------------------------------------------------------------------||
||*--------------------------------------------------------------------*||
||*--------------------------------------------------------------------*||
||----------------------------------------------------------------------||
||---3--3--3--3--3--3--3--3--3--3--3--3--3--3--3--3--3--3--3--3--3--3---||


(riff 2)
      s  s  s  s  s  s  s  s     e  e     e  e
||-----------------------------------------------||
||-----------------------------------------------||
||*---------------------------------------------*||
||*---------------------------------------1-----*||
||-------------------------------1-----------3---||
||----3--3--3--3--3--3--3--3--------3------------||

(riff 3)
|---------------------------|
|---------------------------|
|---5--5--5--5--5--5--5--5--|
|---5--5--5--5--5--5--5--4--|
|---3--3--3--3--3--3--3--3--|
|---------------------------|

(riff 4)                 (riff 5)
-------------------------|---------------------------|
-------------------------|---------------------------|
-------------------------|---------------------------|
-5--5--5--5--5--5--5--5--|---2--2--2--2--2--2--2--2--|
-5--5--5--5--5--5--5--5--|---2--2--2--2--2--2--2--2--|
-3--3--3--3--3--3--3--3--|---0--0--0--0--0--0--0--0--|


Riff #1
Here in this place lies the key to your death
Touch it, see it
Here in this place is the means to your end
Touch it, feel it
Green hell

Riff #2
You did your best as someone could
I bet you never knew you would
Did you run away from it?
I bet you thought you were really good

Riff#4
We're gonna burn in hell
Green Hell Green Hell
Riff #5
Like every hell but kind of green
Green Hell Green Hell
Riff #4
Try let me get back up there
Green Hell Green Hell
Riff #5
Feel it burning in your cereal
Green Hell Green Hell
Riff #4
Throw our fuckin' friends inside
Green Hell Green Hell
Riff #5
Gotta fuckin' pay and you must stay
Green Hell Green Hell
Riff #4
Cannot forget about the best
Green Hell Green Hell
Riff #5
Hell is reigning in your blood
Green Hell Green Hell
Riff #3
Gotta burn it all
Green hell

Riff #2
You did your best as someone could
I bet you never knew you would
And did you run away from me
I bet you think they were really good

Riff #1
Here in this place lies the key to your death
Touch it, see it
Here in this place sister won't let it in
Touch it, feel it
Green hell

Riff #2
You did your best as someone could
I bet you'd never knew you would
Did you run away from it?
I bet you thought you were really good
You've come to this as someone told
I bet you'd never knew you would
Riff #3
???Gonna bring???
Green hell
Composição de Danzig
Colaboração e revisão:
  • Luiz Machado
  • Hellektra
5.608 exibições
    • ½ Tom
    • A
    • Bb
    • B
    • C
    • Db
    • D
    • Eb
    • E
    • F
    • F#
    • G
    • Ab
  • Adicionar à lista

    0 comentários

    Ver todos os comentários

    Conseguiu tocar?

    2 Tocaram 0 Ainda não

    Grave um vídeo tocando Green Hell e nos envie!

    00:00 / 00:00
    outros vídeos desta música
    repetir qualidade Automático
    Outros vídeos desta música
    00:00 / 00:00
    Automático

    Cifra Club Pro

    Aproveite o Cifra Club com benefícios exclusivos e sem anúncios
    Cifra Club Pro
    Aproveite o Cifra Club com benefícios exclusivos e sem anúncios
    OK