Cifra Club

Aprenda

Hit The Lights

Metallica

Cifra: Principal (violão e guitarra)
tom: D
1)
D|-----------------------------------------
A-2-2-2-2-2-2-2-2-------4-4-4-4-4-4-4-4---
E-0-0-0-0-0-0-0-0-------2-2-2-2-2-2-2-2--- pick slide

intro
2)
G|----------------5-7---5-------------------------
D|--2-------------5-7-5-5--------------7p5---5----
A|--0-0-0-0-0-0-0-----5----0-0-0-0-0-0-----7---5-7
E|------------------------------------------------
pm............ ...........

3)
D|--7-7-------7-7---------
A|--5-5--7-7--5-5--3-2----
E|-------5-5-----------3--
"No life till leather..."

4)
D|--9-9--------------
A|--7-7--------3-2---
E|-------3-2-3-----3-
"never..."

5)
D|------2------2--5---2
A|--0-0-0--0-0-0--3-5-0
E|------------------3--
pm.. ...
"Hit the Lights"


6)
G|-----------------5--7-7---0-0-----------------------------------
D|--5--------------5--7-7---0-0--5---------------7p5-----5--------
A|--0--0-0-0-0-0-0---------------0--0-0-0-0-0-0-------7-----6--7--
E|----------------------------------------------------------------
during solo 1 and solo 2

7)
G|-------|--------5---------7---------5-------------
D|--5-2--|7-7-7-7-5-7-7-7-7-7-7-7-7-7-5--7-5--------
A|--3-0--|0-0-0-0---0-0-0-0---0-0-0-0--------7-6-5-3
E|-------|------------------------------------------
pre solo 

8) 8x
G-4-4-4-4-7-4-4-4-4-9-4-4-4-4-7---------------------
D-4-4-4-4-7-4-4-4-4-9-4-4-4-4-7--9--7---------------
A-2-2-2-2-5-2-2-2-2-7-2-2-2-2-5--------9--8--7------
E|-----------------------------------------------10--
during solo 3 

9) 4x
G|---------5---------7---------5---------------------
D-7-7-7-7-5-7-7-7-7-7-7-7-7-7-5--7--5---------------
A-7-7-7-7-3-7-7-7-7-5-7-7-7-7-3--------7--6--5------
E-5-5-5-5---5-5-5-5---5-5-5-5-------------------8---
during solo 3

10) 2x
G|-------------------------
D-7---5-------------------
A|---------7---6---5-------
E|---------------------8---
during solo 3

11) 
G|--2-2-2-2-2-2-2-2---||-2-----2-2----
D|--2-2-2-2-2-2-2-2--º||-2-----2-2----
A|--0-0-0-0-0-0-0-0--º||-0-----0-0----
E|--------------------||--------------
Composição de James Hetfield / Lars Ulrich
Colaboração e revisão:
  • Gustavo Moreira
  • Gabriel Garcia
33.067 exibições
    • ½ Tom
    • A
    • Bb
    • B
    • C
    • Db
    • D
    • Eb
    • E
    • F
    • F#
    • G
    • Ab
  • Adicionar à lista

    0 comentários

    Ver todos os comentários

    Conseguiu tocar?

    6 Tocaram 1 Ainda não

    Grave um vídeo tocando Hit The Lights e nos envie!

    00:00 / 00:00
    outros vídeos desta música
    repetir qualidade Automático
    Outros vídeos desta música
    00:00 / 00:00
    Automático

    Cifra Club Pro

    Aproveite o Cifra Club com benefícios exclusivos e sem anúncios
    Cifra Club Pro
    Aproveite o Cifra Club com benefícios exclusivos e sem anúncios
    OK