Cifra Club

Aprenda

Last Caress

Metallica

Cifra: Principal (violão e guitarra)
tom: C
Intro
|---------------10-12-----10-12--10---7----|
|10-------------10-12--10-10-12--10---7----|
|10--------------8-10--10--8-10---8---5----|
|-8---------------------8------------------|

Verse
   PM...................                     
|-------------------------10-12-|
|10-----------------------10-12-|
|10------------------------8-10-|
|-8--8-8-8-8-8-8-8-8-8-8--------|
   
Fill
                PM........... 
|10---10---7--7------------------------------------|
|10---10---7--7---10---------------9/10-10-10------|
|-8----8---5--5---10---------------9/10-10-10------|
|------------------8--8-8-8-8-8-8--7/8---8--8------|

Chorus
|-3-----3----5-----5-----------------------------------|
|-1-----1----3-----3--8-8-8-8-7-7-7-7-5-5-5-5-5-5-5-5--|

End
|----------10-12-|
|-10-------10-12-|
|-10--------8-10-|
|--8-------------|

Tah ai galera, soh tinha pra guitar pro.como eu sei q num eh todos q tem esse programa resolvi por a cifra ae
Composição de Glenn Danzig
Colaboração e revisão:
  • Rafael Gonzales
14.746 exibições
    • ½ Tom
    • A
    • Bb
    • B
    • C
    • Db
    • D
    • Eb
    • E
    • F
    • F#
    • G
    • Ab
  • Adicionar à lista

    0 comentários

    Ver todos os comentários

    Conseguiu tocar?

    4 Tocaram 0 Ainda não

    Grave um vídeo tocando Last Caress e nos envie!

    00:00 / 00:00
    outros vídeos desta música
    repetir qualidade Automático
    Outros vídeos desta música
    00:00 / 00:00
    Automático

    Cifra Club Pro

    Aproveite o Cifra Club com benefícios exclusivos e sem anúncios
    Cifra Club Pro
    Aproveite o Cifra Club com benefícios exclusivos e sem anúncios
    OK