Cifra Club

Aprenda

Manunkind

Metallica

Cifra: Principal (violão e guitarra)
tom: G
[Intro]

E|--------------------------------------------------------------------------------------------------|
B|---10--10----10--10-----10----10--10----8--8----8----8--8-----------8h10p86----------------------|
G|-9---------9----------9-----9---------9-------7----7------7------9-----------9-7/9----------------|   x2
D|------------------------------------------------------------9/10-------------------11-------------|
A|--------------------------------------------------------------------------------------------------|
E|--------------------------------------------------------------------------------------------------|

E|------------------------------------------------------------------------------|
B|------------------------------------------------------------------------------|
G|------------------------------------------------------------------------------|   x2
D|------------------------------------------------------------------------------|
A|-9-9-9-9--9-9---9-9-9--9-9--9-9-9--2-3-4-7---------------------------------|
E|-7-7-7-7--7-7---7-7-7--7-7--7-7-7--0-1-2-5---------------------------------|

E|---------------------|     
B|---------------------|   
G|---------------------| 
D|---------------------| x2 
A|-4--4--4--4--2-3-4-7-|   
E|-2--2--2--2--0-1-2-5-|  

E|--------------------------------------------------------|
B|--------------------------------------------------------|
G|--------------------------------------------------------|  x2
D|---4-----4---------4-----4---------4-----4--------------|
A|-----2h3---3---------2h3---3---------2h3---3----2-3-4-7-|
E|-2-----------0---2-----------0---2-----------0--0-1-2-5-|

E|-----------------------------|
B|-----------------------------|
G|-----------------------------|  x4
D|---4-----4-----4-4-----2-----|
A|-----2h3-----------2h3-------|
E|-2---------3-2-----------5-0-|

E|------------------------------------------------------------------------------|
B|------------------------------------------------------------------------------|
G|------------------------------------------------------------------------------|
D|-------4---4-----------4---4-----------4---4---4--------------4---------------|
A|------------------------------------------------------------------------------|
E|-0-2-2---2---0-----2-2---2---0-----2-2---2---2---0-5p2-2-2--2-----------------|
                                                                              

E|------------------------------------------------------------------------------|
B|------------------------------------------------------------------------------|
G|------------------------------------------------------------------------------|
D|-------4---4----------4---4----------4---4---4---4----------------------------|
A|-----------------------------------------------------4p2----------------------|
E|-0-2-2---2---0----2-2---2---0----2-2---2---2---2---2-----5-0------------------|
                                                                              

E|------------------------------------------------------------------------------|
B|------------------------------------------------------------------------------|
G|------------------------------------------------------------------------------|
D|-------4---4-----------4---4-----------4---4---4--------------4---------------|
A|------------------------------------------------------------------------------|
D|---2-2---2---0-----2-2---2---0-----2-2---2---2---0-5p2-2-2--2-----------------|
                                                                              

E|------------------------------------------------------------------------------|
B|------------------------------------------------------------------------------|
G|------------------------------------------------------------------------------|
D|-------4---4----------4---4----------4---4---4---4----------------------------|
A|-----------------------------------------------------4p2----------------------|
E|-0-2-2---2---0----2-2---2---0----2-2---2---2---2---2-----5-0------------------|
                                                                 
E|------------------------------------------------------------------------------|
B|------------------------------------------------------------------------------|
G|------------------------------------------------------------------------------|
D|------------------------------------------------------------------------------|
A|-----9--9-9-9--9-9--9-9-9--9--9--9--4p2-------------------------------------|
E|-2-5-7--7-7-7--7-7--7-7-7--7--7--7------5-0---------------------------------|
                                                                              

E|------------------------------------------------------------------------------|
B|------------------------------------------------------------------------------|
G|------------------------------------------------------------------------------|
D|------------------------------------------------------------------------------|
A|-----9--9-9-9--9-9--9-9-9--9--9--9--4p2-------------------------------------|
E|-2-5-7--7-7-7--7-7--7-7-7--7--7--7------5-0---------------------------------|
                                                                              

E|----------------------------------------------------------------------------|
B|----------------------------------------------------------------------------|
B|----------------------------------------------------------------------------|
D|----------------------------------------------------------------------------|
A|-------9--9-9-9--9-9--9-9-9--9-9-9--7-------7-7-------11-11-11--2-3-4-7-4-|
E|-2-5---7--7-7-7--7-7--7-7-7--7-7-7--5-5-5-5-5-5-9-9-9-9--9--9---0-1-2-5-2-|
                                                                              

E|------------------------------------------------------------------------------|
B|------------------------------------------------------------------------------|
G|------------------------------------------------------------------------------|  
D|---4-----4---------4-----4---------4-----4------------------------------------|
A|-----2h3---3---------2h3---3---------2h3---3----2-3-4-7-----------------------|
E|-2-----------0---2-----------0---2-----------0--0-1-2-5-----------------------|

E|------------------------------------------------------------------------------|
B|------------------------------------------------------------------------------|
G|------------------------------------------------------------------------------|
D|---4-----4-----4-4-----2------------------------------------------------------|
A|-----2h3-----------2h3--------------------------------------------------------|
E|-2---------3-2-----------5-0--------------------------------------------------|
                                                                              

E|------------------------------------------------------------------------------|
B|------------------------------------------------------------------------------|
G|------------------------------------------------------------------------------|
D|---------4--------------------------------------------------------------------|
A|--------------------3----------2----------------------------------------------|
E|-0h2-2-2----0h2-2-2----0h2-2-2----3p2-2-5p2-2---------------------------------|
                                                                              

E|------------------------------------------------------------------------------|
B|------------------------------------------------------------------------------|
G|------------------------------------------------------------------------------|
D|---------4-----------------------4----4---------------------------------------|
A|--------------------3----------0-2--0-2---------------------------------------|
E|-0h2-2-2----0h2-2-2----0h2-2-2------------------------------------------------|

E|------------------------------------------------------------------------------|
B|------------------------------------------------------------------------------|
G|------------------------------------------------------------------------------|
D|------------------------------------------------------------------------------|
A|-----9--9-9-9--9-9--9-9-9--9--9--9--4p2-------------------------------------|
E|-2-5-7--7-7-7--7-7--7-7-7--7--7--7------5-0---------------------------------|
                                                                              

E|------------------------------------------------------------------------------|
B|------------------------------------------------------------------------------|
G|------------------------------------------------------------------------------|
D|------------------------------------------------------------------------------|
A|-----9--9-9-9--9-9--9-9-9--9--9--9--4p2-------------------------------------|
E|-2-5-7--7-7-7--7-7--7-7-7--7--7--7------5-0---------------------------------|
                                                                              

E|------------------------------------------------------------------------------|
B|------------------------------------------------------------------------------|
G|------------------------------------------------------------------------------|
D|------------------------------------------------------------------------------|
A|---------9--9-9-9--9-9--9-9-9--9-9-9--7-------7-7-------11-11-11------------|
E|---2-5---7--7-7-7--7-7--7-7-7--7-7-7--5-5-5-5-5-5-9-9-9-9--9--9-------------|
Composição de James Hetfield / Lars Ulrich / Robert Trujillo
Colaboração e revisão:
  • Pedro Rodrigues
1.189 exibições
    • ½ Tom
    • A
    • Bb
    • B
    • C
    • Db
    • D
    • Eb
    • E
    • F
    • F#
    • G
    • Ab
  • Adicionar à lista

    0 comentários

    Ver todos os comentários

    Conseguiu tocar?

    0 Tocaram 0 Ainda não

    Grave um vídeo tocando Manunkind e nos envie!

    00:00 / 00:00
    outros vídeos desta música
    repetir qualidade Automático
    Outros vídeos desta música
    00:00 / 00:00
    Automático

    Cifra Club Pro

    Aproveite o Cifra Club com benefícios exclusivos e sem anúncios
    Cifra Club Pro
    Aproveite o Cifra Club com benefícios exclusivos e sem anúncios
    OK