Cifra Club

Aprenda

Moth Into Flame

Metallica

Cifra: Principal (violão e guitarra)
tom: G
[Intro]

E|---------------|----------|--------------|---------||
B|---------------|----------|--------------|---------||
G|--9--10-9---7--|----------|-9--12-9---7--|---------||
D|---------------|----------|--------------|---------|| x2
A|---------------|-2--------|--------------|-2-2-----||
E|---------------|-0--------|--------------|-0-0-----||

E|--------------|--------------|----------------|----------------|
B|--------------|--------------|----------------|----------------|
G|-9--10-9---7--|--------------|----------------|----------------|
D|--------------|--------------|------5---------|----------------|
A|--------------|-7--8-7---5-7-|-(7)----7---5-7-|-(7)--8-7---5-7-|
E|--------------|--------------|----------------|----------------|

E|--------------|
B|--------------|
G|------9--7----|
D|----5-9--7----|
A|-7----7--5----|
E|------7--5----|

E|--------------------------|----------------------------||
B|--------------------------|----------------------------||
G|--------------------------|----------------------------||
D|--------------------------|----------------------------|| x2
A|--------------------------|----------------------------||
E|--1-1-0--0--0----0--0--0--|-1-1-0--0--0--1-1-0--1-1-0--||

E|------------------|-------------------|
B|------------------|-------------------|
G|------------------|-------------------|
D|------------------|---------------7---|
A|------------------|-------------5---8-|
E|-1-1-0-0-0--0-0-0-|-1-1-0-0-5-6-------|

E|------------------|-------------------|-----------------|---------------------||
B|------------------|-------------------|-----------------|---------------------||
G|------------------|-------------------|-----------------|---------------------||
D|------------------|-------------------|-----------------|-------------7-------|| x2
A|--7-----2-----3-3-|-2-----2-----3-3---|-2-----2-----3-3-|-2---------5---8-----||
E|----0-0-0-0-0-1-1-|-0-0-0-0-0-0-1-1---|-0-0-0-0-0-0-1-1-|-0-0-0-5-6-----------||


[Verse]

E|--------------------------|----------------------------|
B|--------------------------|----------------------------|
G|--------------------------|----------------------------|
D|--------------------------|----------------------------|
A|--------------------------|----------------------------|
E|--1-1-0--0--0----0--0--0--|-1-1-0--0--0--1-1-0--1-1-0--|

E|-------------------------|------------------------||
B|-------------------------|------------------------||
G|-------------------------|------------------------||
D|-------------------------|-----------------7------|| x4
A|-------------------------|---------------5---8----||
E|-1-1-0--0--0----0--0--0--|-1-1-0--0--5-6----------||


[Pre-Chorus]

E|-----------------------------|--------------------------|
B|-----------------------------|--------------------------|
G|-----------------------------|--------------------------|
D|-----------------------------|--------------------------|
A|--7----------------------8-5-|-7--------------------8-5-|
E|--0-0-0-0-0-0-0-0-0-0-/7-----|---0-0-0-0-0-0-0-0-/7-----|

E|----------------|------------------------------||
B|----------------|------------------------------||
G|----------------|------------------------------||
D|----------------|------------------------------|| x2
A|-7---5---10-9---|-2----------------------8-5---||
E|---8---7--8-7---|-0-0-0-0-0-0-0-0-0-0-/7-------||


[Lead]
   Gtr II
E|--------------------------------------|----------------------------------------|
B|--------------------------------------|----------------------------------------|
G|-------------------12-----------------|----------------------------------------|
D|------------------------15-------14---|-(14)---12-------14-------15---14~~-----|
A|---------12---15----------------------|----------------------------------------|
E|--------------------------------------|----------------------------------------|
 | Gtr I
E|--------------------------------------|----------------------------------------|
B|--------------------------------------|----------------------------------------|
G|--------------------------------------|----------------------------------------|
D|--------------------------------------|----------------------------------------|
A|--------------------------------------|----------------------------------------|
E|-5-5-5-5--5-5--5-5--5-5--5-5-5-5--5-5-|---5--5--5-5-5-5--5-5-5-5--5-5--5-5-5-5-|

E|--------------------------------------|---------------------------------------|
B|--------------------------------------|---------------------------------------|
G|-------------------12-----------------|---------------------------------------|
D|------------------------15-------14---|-(14)---12-------14-------15~~---------|
A|---------12---15----------------------|---------------------------------------|
E|--------------------------------------|---------------------------------------|
 |
E|--------------------------------------|---------------------------------------|
B|--------------------------------------|---------------------------------------|
G|--------------------------------------|---------------------------------------|
D|--------------------------------------|---------------------------------------|
A|--------------------------------------|---------------------------------------|
E|-5-5-5-5--3-3--3-3--3-3--3-3-3-3--3-3-|---3--3--3-3-3-3--3-3-3-3--3-3-3-3-3-3-|

E|--------------------------------------|----------------------------------------|
B|--------------------------------------|----------------------------------------|
G|-------------------12-----------------|----------------------------------------|
D|------------------------15-------14---|-(14)---12-------14-------15---14~~-----|
A|---------12---15----------------------|----------------------------------------|
E|--------------------------------------|----------------------------------------|
 |
E|--------------------------------------|----------------------------------------|
B|--------------------------------------|----------------------------------------|
G|--------------------------------------|----------------------------------------|
D|--------------------------------------|----------------------------------------|
A|--------------------------------------|----------------------------------------|
E|-5-5-5-5--5-5--5-5--5-5--5-5-5-5--5-5-|---5--5--5-5-5-5--5-5-5-5--5-5--5-5-5-5-|

E|-------------------------------------|----------------------------------------|
B|-------------------------------------|----------------------------------------|
G|--------------12----------------14---|-(14)------------16----------------12---|
D|---------12----------------12--------|------------12----------------12--------|
A|-------------------------------------|----------------------------------------|
E|-------------------------------------|----------------------------------------|
 |
E|-------------------------------------|----------------------------------------|
B|-------------------------------------|----------------------------------------|
G|-------------------------------------|----------------------------------------|
D|-------------------------------------|----------------------------------------|
A|-------------------------------------|----------------------------------------|
E|-5-5-5-5--3-3--3-3-3-3-3-3--3-3--3-3-|---3--3-3-3--3-3--3-3-3-3-3-3--3-3--3-3-|


[Chorus]

E|------------------------|--------------------|
B|------------------------|--------------------|
G|------------------------|--------------------|
D|------------------------|--------------------|
A|----------7----------7--|---------7------7---|
E|--5-5-5-5-5--5-5-5-5-5--|-5-5-5-5-5---/8---8-|

E|-----------------------|---------------------||
B|-----------------------|---------------------||
G|-----------------------|---------------------||
D|-----------------------|---------------------|| x2
A|---------5----------5--|---------5------7----||
E|-3-3-3-3-3--3-3-3-3-3--|-3-3-3-3-3---/8---8--||

E|----------------------------|-----------------------------||
B|----------------------------|-----------------------------||
G|----------------------------|-----------------------------||
D|--9---------9---------9-----|-----------------------------|| x2
A|--7---------7---------7-----|------------------------8-5--||
E|----0-0-0-0---0-0-0-0---0-0-|-0-0-0-0-0-0-0-0-0-0-/7------||

E|------------------------|----------------|
B|------------------------|----------------|
G|------------------------|----------------|
D|-9---------9---------9--|-----------7----|
A|-7---------7---------7--|---------5----8-|
E|---0-0-0-0---0-0-0-0----|-----5-6--------|


[Riff]

E|------------------|-------------------|-----------------|---------------------||
B|------------------|-------------------|-----------------|---------------------||
G|------------------|-------------------|-----------------|---------------------||
D|------------------|-------------------|-----------------|-------------7-------|| x2
A|--7-----2-----3-3-|-2-----2-----3-3---|-2-----2-----3-3-|-2---------5---8-----||
E|----0-0-0-0-0-1-1-|-0-0-0-0-0-0-1-1---|-0-0-0-0-0-0-1-1-|-0-0-0-5-6-----------||


[Verse 2]

E|--------------------------|----------------------------|
B|--------------------------|----------------------------|
G|--------------------------|----------------------------|
D|--------------------------|----------------------------|
A|--------------------------|----------------------------|
E|--1-1-0--0--0----0--0--0--|-1-1-0--0--0--1-1-0--1-1-0--|

E|-------------------------|------------------------||
B|-------------------------|------------------------||
G|-------------------------|------------------------||
D|-------------------------|-----------------7------|| x2
A|-------------------------|---------------5---8----||
E|-1-1-0--0--0----0--0--0--|-1-1-0--0--5-6----------||


[Pre-Chorus 2]

E|-----------------------------|--------------------------|
B|-----------------------------|--------------------------|
G|-----------------------------|--------------------------|
D|-----------------------------|--------------------------|
A|--7----------------------8-5-|-7--------------------8-5-|
E|--0-0-0-0-0-0-0-0-0-0-/7-----|---0-0-0-0-0-0-0-0-/7-----|

E|----------------|------------------------------||
B|----------------|------------------------------||
G|----------------|------------------------------||
D|----------------|------------------------------|| x2
A|-7---5---10-9---|-2----------------------8-5---||
E|---8---7--8-7---|-0-0-0-0-0-0-0-0-0-0-/7-------||


[Lead 2]
   Gtr II
E|--------------------------------------|----------------------------------------|
B|--------------------------------------|----------------------------------------|
G|-------------------12-----------------|----------------------------------------|
D|------------------------15-------14---|-(14)---12-------14-------15---14~~-----|
A|---------12---15----------------------|----------------------------------------|
E|--------------------------------------|----------------------------------------|
 | Gtr I
E|--------------------------------------|----------------------------------------|
B|--------------------------------------|----------------------------------------|
G|--------------------------------------|----------------------------------------|
D|--------------------------------------|----------------------------------------|
A|--------------------------------------|----------------------------------------|
E|-5-5-5-5--5-5--5-5--5-5--5-5-5-5--5-5-|---5--5--5-5-5-5--5-5-5-5--5-5--5-5-5-5-|

E|--------------------------------------|---------------------------------------|
B|--------------------------------------|---------------------------------------|
G|-------------------12-----------------|---------------------------------------|
D|------------------------15-------14---|-(14)---12-------14-------15~~---------|
A|---------12---15----------------------|---------------------------------------|
E|--------------------------------------|---------------------------------------|
 |
E|--------------------------------------|---------------------------------------|
B|--------------------------------------|---------------------------------------|
G|--------------------------------------|---------------------------------------|
D|--------------------------------------|---------------------------------------|
A|--------------------------------------|---------------------------------------|
E|-5-5-5-5--3-3--3-3--3-3--3-3-3-3--3-3-|---3--3--3-3-3-3--3-3-3-3--3-3-3-3-3-3-|

E|--------------------------------------|----------------------------------------|
B|--------------------------------------|----------------------------------------|
G|-------------------12-----------------|----------------------------------------|
D|------------------------15-------14---|-(14)---12-------14-------15---14~~-----|
A|---------12---15----------------------|----------------------------------------|
E|--------------------------------------|----------------------------------------|
 |
E|--------------------------------------|----------------------------------------|
B|--------------------------------------|----------------------------------------|
G|--------------------------------------|----------------------------------------|
D|--------------------------------------|----------------------------------------|
A|--------------------------------------|----------------------------------------|
E|-5-5-5-5--5-5--5-5--5-5--5-5-5-5--5-5-|---5--5--5-5-5-5--5-5-5-5--5-5--5-5-5-5-|

E|-------------------------------------|----------------------------------------|
B|-------------------------------------|----------------------------------------|
G|--------------12----------------14---|-(14)------------16----------------12---|
D|---------12----------------12--------|------------12----------------12--------|
A|-------------------------------------|----------------------------------------|
E|-------------------------------------|----------------------------------------|
 |
E|-------------------------------------|----------------------------------------|
B|-------------------------------------|----------------------------------------|
G|-------------------------------------|----------------------------------------|
D|-------------------------------------|----------------------------------------|
A|-------------------------------------|----------------------------------------|
E|-5-5-5-5--3-3--3-3-3-3-3-3--3-3--3-3-|---3--3-3-3--3-3--3-3-3-3-3-3--3-3--3-3-|


[Chorus 2]

E|------------------------|--------------------|
B|------------------------|--------------------|
G|------------------------|--------------------|
D|------------------------|--------------------|
A|----------7----------7--|---------7------7---|
E|--5-5-5-5-5--5-5-5-5-5--|-5-5-5-5-5---/8---8-|

E|-----------------------|---------------------||
B|-----------------------|---------------------||
G|-----------------------|---------------------||
D|-----------------------|---------------------|| x2
A|---------5----------5--|---------5------7----||
E|-3-3-3-3-3--3-3-3-3-3--|-3-3-3-3-3---/8---8--||

E|----------------------------|-----------------------------||
B|----------------------------|-----------------------------||
G|----------------------------|-----------------------------||
D|--9---------9---------9-----|-----------------------------|| x2
A|--7---------7---------7-----|------------------------8-5--||
E|----0-0-0-0---0-0-0-0---0-0-|-0-0-0-0-0-0-0-0-0-0-/7------||

E|------------------------|----------------|-----|----------------|
B|------------------------|----------------|-----|----------------|
G|------------------------|----------------|-----|----------------|
D|-9---------9---------9--|-----------7----|-----|----------------|
A|-7---------7---------7--|---------5----8-|-7---|-(7)----2--5-7--|
E|---0-0-0-0---0-0-0-0----|-----5-6--------|-----|--------0--3-5--|


[Bridge]

E|-----------------|------------------|-----------------|-----------------|
B|-----------------|------------------|-----------------|-----------------|
G|-----------------|------------------|-----------------|-----------------|
D|-----------------|------------------|-----------------|-----------------|
A|-8-2-------------|-------------5-7--|-8-2-------------|-----------------|
E|-6-0-0-0-0-0-0-0-|-0-0-0-0-0-0-3-5--|-6-0-0-0-0-0-0-0-|-0-0-0-0-0-0-0-0-|

E|-----------------|------------------|-----------------|-----------------|
B|-----------------|------------------|-----------------|-----------------|
G|-----------------|------------------|-----------------|-----------------|
D|-----------------|------------------|-----------------|-----------------|
A|-8-2-------------|-------------5-7--|-8-2-------------|-----------------|
E|-6-0-0-0-0-0-0-0-|-0-0-0-0-0-0-3-5--|-6-0-0-0-0-0-0-0-|-0-0-0-0-0-0-0-0-|

E|----------------|-------------------|-----------------|---------------------|
B|----------------|-------------------|-----------------|---------------------|
G|----------------|-------------------|-----------------|---------------------|
D|----------------|-------------------|-----------------|---------------------|
A|-7-7--7-7-5-----|-----2-------------|-8-7---7---5-5-5-|-(5)-2---------------|
E|------------7-6-|-(6)-0-0-0-0-0-0-0-|-6-5-5-5-5-3-3-3-|-(3)-0-0-0-0-0-0-0---|

E|----------------|-------------------|-----------------|-------------------|
B|----------------|-------------------|-----------------|-------------------|
G|----------------|-------------------|-----------------|-------------------|
D|----------------|-------------------|-----------------|-------------------|
A|-7-7--7-7-5-----|-----2-------------|-8-7---7---5-5-5-|-(5)-2---------5-7-|
E|------------7-6-|-(6)-0-0-0-0-0-0-0-|-6-5-5-5-5-3-3-3-|-(3)-0-0-0-0-0-3-5-|


[Vocals enter]

E|-----------------|--------------------||
B|-----------------|--------------------||
G|-----------------|--------------------||
D|-----------------|--------------------|| x4
A|-8-2-------------|-------------5-7----||
E|-6-0-0-0-0-0-0-0-|-0-0-0-0-0-0-3-5----||


[Solo]
   Kirk
E|------------------|-------------------------|-------------------------|------------------------|
B|------------------|-------------------------|-------------------------|------------------------|
G|-9-9-9-9-9-9-9-12-|-12-12-12-12-12-12-12-14-|-14-14-14-14-14-14-14-15-|-15-15-15-17-17-19-19---|
D|------------------|-------------------------|-------------------------|------------------------|
A|------------------|-------------------------|-------------------------|------------------------|
E|------------------|-------------------------|-------------------------|------------------------|
 |
 | James
E|------------------|-------------------------|-------------------------|------------------------|
B|------------------|-------------------------|-------------------------|------------------------|
G|------------------|-------------------------|-------------------------|------------------------|
D|------------------|-------------------------|-------------------------|------------------------|
A|-8-2--------------|--------------------5--7-|--8--2-------------------|--------------------5-7-|
E|-6-0-0-0-0-0-0--0-|--0--0--0--0--0--0--3--5-|--6--0--0--0--0--0--0--0-|--0--0--0--0--0--0--3-5-|

E|------------------|-------------------------|-------------------------|-----------------------|
B|------------------|-------------------------|-------------------------|-----------------------|
G|-9-9-9-9-9-9-9-12-|-12-12-12-12-12-12-12-14-|-14-14-14-14-14-14-14-15-|-15-15-15-17-17\-------|
D|------------------|-------------------------|-------------------------|-----------------------|
A|------------------|-------------------------|-------------------------|-----------------------|
E|------------------|-------------------------|-------------------------|-----------------------|
 |
E|------------------|-------------------------|-------------------------|-----------------------|
B|------------------|-------------------------|-------------------------|-----------------------|
G|------------------|-------------------------|-------------------------|-----------------------|
D|------------------|-------------------------|-------------------------|-----------------------|
A|-8-2--------------|--------------------5--7-|--8--2-------------------|-------------------5-7-|
E|-6-0-0-0-0-0-0--0-|--0--0--0--0--0--0--3--5-|--6--0--0--0--0--0--0--0-|--0--0--0--0--0--0-3-5-|

E|------------------------|-----------------------|------------------------|-----------------------|
B|-15b15.5----12\---------|-----12----12\---------|----12----12------12-15-|-(15)------------------|
G|-14b14.5----12\---------|-----12----12\---------|----12----12------12-14-|-(14)b16---------------|
D|------------------------|-14-----14-------------|-14----14------14-------|-----------------------|
A|------------------------|-----------------------|------------------------|-----------------------|
E|------------------------|-----------------------|------------------------|-----------------------|
 |
E|------------------------|-----------------------|------------------------|-----------------------|
B|------------------------|-----------------------|------------------------|-----------------------|
G|------------------------|-----------------------|------------------------|-----------------------|
D|------------------------|-----------------------|------------------------|-----------------------|
A|--7------7---7--7-5-----|------2----------------|--8--7-----7----5--5--5-|--(5)----2-------------|
E|--------------------7-6-|-(6)--0--0--0--0-0-0-0-|--6--5--5--5-5--3--3--3-|--(3)----0-0-0-0-0-0-0-|

E|----------------------|-----------------------|-------------------------|-------------------------|
B|-15-------12\---------|-----12----12\---------|----12-12----12-12----12-|-(12)----12-12-12--------|
G|-14b16----12\---------|-----12----12\---------|----12-12----12-12----12-|-(12)----12-12-12--------|
D|----------------------|-14-----14-------------|-14-------14-------14----|------14----------14-----|
A|----------------------|-----------------------|-------------------------|-------------------------|
E|----------------------|-----------------------|-------------------------|-------------------------|
 |
E|----------------------|-----------------------|-------------------------|-------------------------|
B|----------------------|-----------------------|-------------------------|-------------------------|
G|----------------------|-----------------------|-------------------------|-------------------------|
D|----------------------|-----------------------|-------------------------|-------------------------|
A|--7----7---7--7-5-----|------2----------------|--8--7-----7-----5--5--5-|--(5)--2-----------------|
E|------------------7-6-|-(6)--0--0--0--0-0-0-0-|--6--5--5--5--5--3--3--3-|--(3)--0--0--0--0--0-0-0-|

E|----------------------------------------------|-------------------------------------|
B|-------12-12h15p12----12h15p12----12h15p12----|-12h15p12----------------------12-13-|
G|-14b16-------------14----------14----------14-|----------14-12h14p12----12-14-------|
D|----------------------------------------------|----------------------14-------------|
A|----------------------------------------------|-------------------------------------|
E|----------------------------------------------|-------------------------------------|
 |
E|----------------------------------------------|-------------------------------------|
B|----------------------------------------------|-------------------------------------|
G|--5-----5--5-----5-----5-----5-----5-----5----|--5-----5-----5--5--5--5--5--5-------|
D|--5-----5--5-----5-----5-----5-----5-----5----|--5-----5-----5--5--5--5--5--5-------|
A|--3-----3--3-----3-----3-----3-----3-----3----|--3-----3-----3--3--3--3--3--3-------|
E|----------------------------------------------|-------------------------------------|

E|----12-------------------|-------------------------------|
B|-15----------------------|-------------------------------|
G|-------------------------|-------------------------------|
D|-------12-14-12----12-14-|-12-14-14p12----12-14-14p12----|
A|----------------14-------|-------------14-------------14-|
E|-------------------------|-------------------------------|
 |
E|-------------------------|-------------------------------|
B|-------------------------|-------------------------------|
G|--7--7--7--7--7--7--7--7-|--7--7--7-----7--7--7--7-----7-|
D|--7--7--7--7--7--7--7--7-|--7--7--7-----7--7--7--7-----7-|
A|--5--5--5--5--5--5--5--5-|--5--5--5-----5--5--5--5-----5-|
E|-------------------------|-------------------------------|

E|-------------------------------|--------------------------------|
B|-------------------------------|--------------------------------|
G|-------------------------------|--------------------------------|
D|-12-14-14p12----12-14-14p12----|-12--14-14p12----12-14-14p12----|
A|-------------14-------------14-|--------------14-------------14-|
E|-------------------------------|--------------------------------|
 |
E|-------------------------------|--------------------------------|
B|-------------------------------|--------------------------------|
G|-------------------------------|--------------------------------|
D|-------------------------------|--------------------------------|
A|--7--7--------7--7--5----------|--------------------------------|
E|-----------------------7-----6-|-(6)--0--0-----0--0--0--0-----0-|

E|----------------------------|-----------------------------------|
B|----------------------------|-----------------------------------|
G|----12-11-------------------|-----------------------------------|
D|-14----------12-14-14p12----|-12h=14p12----12h14p12----12~~~----|
A|----------14-------------14-|-----------14----------14----------|
E|----------------------------|-----------------------------------|
 |
E|----------------------------|-----------------------------------|
B|----------------------------|-----------------------------------|
G|----------------------------|-----------------------------------|
D|----------------------------|-----------------------------------|
A|--7--7-----7--7--5----------|-----------------------------------|
E|--------------------7-----6-|-(6)-----0-----0-----0-----0-0-0-0-|

E|----------------------------|----------------------------|
B|-------------------15-------|-------------------15-------|
G|-12----12-14b16=======14r14-|-12----12-14b16=======14r14-|
D|----14----------------------|----14----------------------|
A|----------------------------|----------------------------|
E|----------------------------|----------------------------|
 |
E|----------------------------|----------------------------|
B|----------------------------|----------------------------|
G|--5--5--5--5-----5--5--5--5-|--5--5--5--5-----5--5--5--5-|
D|--5--5--5--5-----5--5--5--5-|--5--5--5--5-----5--5--5--5-|
A|--3--3--3--3-----3--3--3--3-|--3--3--3--3-----3--3--3--3-|
E|----------------------------|----------------------------|

E|-------------------15-------|-------------------15-------|
B|----------15b17=======15r15-|----------15b17=======15r15-|
G|-12----12-------------------|-14-12-14-------------------|
D|----14----------------------|----------------------------|
A|----------------------------|----------------------------|
E|----------------------------|----------------------------|
 |
E|----------------------------|----------------------------|
B|----------------------------|----------------------------|
G|--7--7--7--7-----7--7--7--7-|--7--7--7--7-----7--7--7--7-|
D|--7--7--7--7-----7--7--7--7-|--7--7--7--7-----7--7--7--7-|
A|--5--5--5--5-----5--5--5--5-|--5--5--5--5-----5--5--5--5-|
E|----------------------------|----------------------------|

E|-12h15p12----12h15p12----12h17p12----12h17p12----|-12h=18p12----12h18p12----12h17p12----12h17p12----|
B|----------15----------15----------15----------15-|-----------15----------15----------15----------15-|
G|-------------------------------------------------|--------------------------------------------------|
D|-------------------------------------------------|--------------------------------------------------|
A|-------------------------------------------------|--------------------------------------------------|
E|-------------------------------------------------|--------------------------------------------------|
|
E|-------------------------------------------------|--------------------------------------------------|
B|-------------------------------------------------|--------------------------------------------------|
G|-------------------------------------------------|--------------------------------------------------|
D|-------------------------------------------------|--------------------------------------------------|
A|--7-----7-----------7-----7-----5----------------|--------------------------------------------------|
E|--------------------------------------7-----6----|-(6)-----0-----0-----0-----0-----0-----0-----0----|

E|-12h19p12----12h19p12----12h18p12----12h18p12----|-12h=17p12----12h17p12----12h15p12----12h15p12-------|
B|----------15----------15----------15----------15-|-----------15----------15----------15----------15----|
G|-------------------------------------------------|-----------------------------------------------------|
D|-------------------------------------------------|-----------------------------------------------------|
A|-------------------------------------------------|-----------------------------------------------------|
E|-------------------------------------------------|-----------------------------------------------------|
 |
E|-------------------------------------------------|-----------------------------------------------------|
B|-------------------------------------------------|-----------------------------------------------------|
G|-------------------------------------------------|-----------------------------------------------------|
D|-------------------------------------------------|-----------------------------------------------------|
A|--7-----7-----------7-----7-----5----------------|-----------------------------------------------------|
E|--------------------------------------7-----6----|-(6)-----0-----0-----0-----0-----0-----0-----0-------|

E|-15p12-12-12-15p12-12-12-12-12-15p12-12-12-12-12-|-15p=12----12-15p12-15p12----12-15p12-15p12----12-|
B|-------------------------------------------------|--------15----------------15----------------15----|
G|-------------------------------------------------|--------------------------------------------------|
D|-------------------------------------------------|--------------------------------------------------|
A|-------------------------------------------------|--------------------------------------------------|
E|-------------------------------------------------|--------------------------------------------------|
 |
E|-------------------------------------------------|--------------------------------------------------|
B|-------------------------------------------------|--------------------------------------------------|
G|-------------------------------------------------|--------------------------------------------------|
D|-------------------------------------------------|--------------------------------------------------|
A|--8-----7-----------7-----------5-----5-----5----|-(5)-----2----------------------------------------|
E|--6-----5-----5-----5-----5-----3-----3-----3----|-(3)-----0-----0-----0-----0-----0-----0-----0----|

E|-12h17p12----12h17p12----12h18p12----12h18p12----|-15p=12----12----12----------------|
B|----------15----------15----------15----------15-|--------15----15-------------------|
G|-------------------------------------------------|--------------------14p12----12----|
D|-------------------------------------------------|--------------------------14-------|
A|-------------------------------------------------|-----------------------------------|
E|-------------------------------------------------|-----------------------------------|
 |
E|-------------------------------------------------|-----------------------------------|
B|-------------------------------------------------|-----------------------------------|
G|-------------------------------------------------|-----------------------------------|
D|-------------------------------------------------|-----------------------------------|
A|--8-----7-----------7-----------5-----5-----5----|-(5)-----2-------------------------|
E|--6-----5-----5-----5-----5-----3-----3-----3----|-(3)-----0--0--0--0--0-----0--0----|

E|---------------------------------|-------------------------|
B|-15--------15-------------15-----|-(15)-----15b17~~~~~-----|
G|-14b16-----14b16====14-14-14b16==|=(14)-14r----------------|
D|---------------------------------|-------------------------|
A|---------------------------------|-------------------------|
E|---------------------------------|-------------------------|
 |
E|---------------------------------|-------------------------|
B|---------------------------------|-------------------------|
G|---------------------------------|-------------------------|
D|---------------------------------|-------------------------|
A|--8----7----7--------5--5--5-----|--(5)--2----------3-3-2--|
E|--6----5-5--5-----5--3--3--3-----|--(3)--0---0----0-1-1-0--|


[Re-Intro]

E|--------------|----------------|----------------|------------------------|
B|--------------|----------------|----------------|------------------------|
G|--------------|----------------|----------------|------------------------|
D|--------------|------5---------|----------------|------5---------5--9--7-|
A|-7--8-7---5-7-|-(7)----7---5-7-|-(7)--8-7---5-7-|-(7)----7---5-7----7--5-|
E|--------------|----------------|----------------|-------------------7--5-|


[Verse 3]

E|--------------------------|----------------------------|
B|--------------------------|----------------------------|
G|--------------------------|----------------------------|
D|--------------------------|----------------------------|
A|--------------------------|----------------------------|
E|--1-1-0--0--0----0--0--0--|-1-1-0--0--0--1-1-0--1-1-0--|

E|-------------------------|------------------------||
B|-------------------------|------------------------||
G|-------------------------|------------------------||
D|-------------------------|-----------------7------|| x4
A|-------------------------|---------------5---8----||
E|-1-1-0--0--0----0--0--0--|-1-1-0--0--5-6----------||


[Pre-Chorus 3]

E|-----------------------------|--------------------------|
B|-----------------------------|--------------------------|
G|-----------------------------|--------------------------|
D|-----------------------------|--------------------------|
A|--7----------------------8-5-|-7--------------------8-5-|
E|--0-0-0-0-0-0-0-0-0-0-/7-----|---0-0-0-0-0-0-0-0-/7-----|

E|----------------|------------------------------||
B|----------------|------------------------------||
G|----------------|------------------------------||
D|----------------|------------------------------|| x2
A|-7---5---10-9---|-2----------------------8-5---||
E|---8---7--8-7---|-0-0-0-0-0-0-0-0-0-0-/7-------||


[Lead]
   Gtr II
E|--------------------------------------|----------------------------------------|
B|--------------------------------------|----------------------------------------|
G|-------------------12-----------------|----------------------------------------|
D|------------------------15-------14---|-(14)---12-------14-------15---14~~-----|
A|---------12---15----------------------|----------------------------------------|
E|--------------------------------------|----------------------------------------|
 | Gtr I
E|--------------------------------------|----------------------------------------|
B|--------------------------------------|----------------------------------------|
G|--------------------------------------|----------------------------------------|
D|--------------------------------------|----------------------------------------|
A|--------------------------------------|----------------------------------------|
E|-5-5-5-5--5-5--5-5--5-5--5-5-5-5--5-5-|---5--5--5-5-5-5--5-5-5-5--5-5--5-5-5-5-|

E|--------------------------------------|---------------------------------------|
B|--------------------------------------|---------------------------------------|
G|-------------------12-----------------|---------------------------------------|
D|------------------------15-------14---|-(14)---12-------14-------15~~---------|
A|---------12---15----------------------|---------------------------------------|
E|--------------------------------------|---------------------------------------|
 |
E|--------------------------------------|---------------------------------------|
B|--------------------------------------|---------------------------------------|
G|--------------------------------------|---------------------------------------|
D|--------------------------------------|---------------------------------------|
A|--------------------------------------|---------------------------------------|
E|-5-5-5-5--3-3--3-3--3-3--3-3-3-3--3-3-|---3--3--3-3-3-3--3-3-3-3--3-3-3-3-3-3-|

E|--------------------------------------|----------------------------------------|
B|--------------------------------------|----------------------------------------|
G|-------------------12-----------------|----------------------------------------|
D|------------------------15-------14---|-(14)---12-------14-------15---14~~-----|
A|---------12---15----------------------|----------------------------------------|
E|--------------------------------------|----------------------------------------|
 |
E|--------------------------------------|----------------------------------------|
B|--------------------------------------|----------------------------------------|
G|--------------------------------------|----------------------------------------|
D|--------------------------------------|----------------------------------------|
A|--------------------------------------|----------------------------------------|
E|-5-5-5-5--5-5--5-5--5-5--5-5-5-5--5-5-|---5--5--5-5-5-5--5-5-5-5--5-5--5-5-5-5-|

E|---------------------------------|----------------------------------|------|
B|---------------------------------|----------------------------------|------|
G|--7p5p0---7p5p0---6p5p0---6p5p0--|--5p4p0---5p4p0---4p2p0---4p2p0---|-2----|
D|---------------------------------|----------------------------------|------|
A|---------------------------------|----------------------------------|------|
E|---------------------------------|----------------------------------|------|
 |
E|---------------------------------|----------------------------------|
B|---------------------------------|----------------------------------|
G|---------------------------------|----------------------------------|
D|---------------------------------|----------------------------------|
A|---------------------------------|----------------------------------|
E|-5-5-5-5-3-3-3-3-3-3-3-3-3-3-3-3-|--3-3-3-3-3-3-3-3-3-3-3-3-3-3-3-3-|


[Chorus]

E|------------------------|--------------------|
B|------------------------|--------------------|
G|------------------------|--------------------|
D|------------------------|--------------------|
A|----------7----------7--|---------7------7---|
E|--5-5-5-5-5--5-5-5-5-5--|-5-5-5-5-5---/8---8-|

E|-----------------------|---------------------||
B|-----------------------|---------------------||
G|-----------------------|---------------------||
D|-----------------------|---------------------|| x2
A|---------5----------5--|---------5------7----||
E|-3-3-3-3-3--3-3-3-3-3--|-3-3-3-3-3---/8---8--||

E|----------------------------|-----------------------------||
B|----------------------------|-----------------------------||
G|----------------------------|-----------------------------||
D|--9---------9---------9-----|-----------------------------|| x2
A|--7---------7---------7-----|------------------------8-5--||
E|----0-0-0-0---0-0-0-0---0-0-|-0-0-0-0-0-0-0-0-0-0-/7------||

E|------------------------|----------------|
B|------------------------|----------------|
G|------------------------|----------------|
D|-9---------9---------9--|-----------7----|
A|-7---------7---------7--|---------5----8-|
E|---0-0-0-0---0-0-0-0----|-----5-6--------|


[Riff]

E|------------------|-------------------|-----------------|---------------------||
B|------------------|-------------------|-----------------|---------------------||
G|------------------|-------------------|-----------------|---------------------||
D|------------------|-------------------|-----------------|-------------7-------|| x2
A|--7-----2-----3-3-|-2-----2-----3-3---|-2-----2-----3-3-|-2---------5---8-----||
E|----0-0-0-0-0-1-1-|-0-0-0-0-0-0-1-1---|-0-0-0-0-0-0-1-1-|-0-0-0-5-6-----------||


[Outro]

E|----------------|-------------------|-----------------|---------------------||
B|----------------|-------------------|-----------------|---------------------||
G|----------------|-------------------|-----------------|---------------------||
D|----------------|-------------------|-----------------|---------------------|| x2
A|-7-7--7-7-5-----|-----2-------------|-8-7---7---5-5-5-|-(5)-2---------------||
E|------------7-6-|-(6)-0-0-0-0-0-0-0-|-6-5-5-5-5-3-3-3-|-(3)-0-0-0-0-0-0-0---||

E|-----------------|---------------------|-----------------------||
B|-----------------|---------------------|-----------------------||
G|-----------------|---------------------|-----------------------||
D|-----------------|---------------------|-----------------------||
A|-8-7---7---5-5-5-|-(5)-2---------------|-2-5-------------------||
E|-6-5-5-5-5-3-3-3-|-(3)-0-0-0-0-0-0-0---|-0-3-------------------||

E|-----------------|-----------------------||
B|-----------------|-----------------------||
G|-----------------|-----------------------||
D|-----------------|-----------------------||
A|-8-7---7---5-5-5-|-2-5-------------------||
E|-6-5-5-5-5-3-3-3-|-0-3-------------------||

E|--------------|----------------|----------------|-----------------|
B|--------------|----------------|----------------|-----------------|
G|--------------|----------------|----------------|---------9--7--9-|
D|--------------|------5---------|----------------|------5--9--7--9-|
A|-7--8-7---5-7-|-(7)----7---5-7-|-(7)--8-7---5-7-|-(7)-----7--5--7-|
E|--------------|----------------|----------------|---------7--5--7-|
Composição de James Hetfield / Lars Ulrich
Colaboração e revisão:
  • Pedro Henrique
8.978 exibições
    • ½ Tom
    • A
    • Bb
    • B
    • C
    • Db
    • D
    • Eb
    • E
    • F
    • F#
    • G
    • Ab
  • Adicionar à lista

    0 comentários

    Ver todos os comentários

    Conseguiu tocar?

    1 Tocaram 0 Ainda não

    Grave um vídeo tocando Moth Into Flame e nos envie!

    00:00 / 00:00
    outros vídeos desta música
    repetir qualidade Automático
    Outros vídeos desta música
    00:00 / 00:00
    Automático

    Cifra Club Pro

    Aproveite o Cifra Club com benefícios exclusivos e sem anúncios
    Cifra Club Pro
    Aproveite o Cifra Club com benefícios exclusivos e sem anúncios
    OK