Cifra Club

Aprenda

St. Anger

Metallica

Cifra: Principal (violão e guitarra)
tom: C
Afinação: D A F C G C

Intro:

Guitarra I:

P.M. ........ ..... ........
D|---------------------------------| 
A|---------------------------------|  
F|---------------------------------|  3x
C|---------------------------------|  
G|-----------2-----2---------3-3-3-|  
C|-0-1-2-2-1-2-1-0-2-1-0-1-2-------|  

4ª vez:

Guitarra I:

P.M. ........ ..... ....    
D|-----------------------|
A|-----------------------|
F|-----------------------|
C|-----------------------|
G|-----------2-----2-----|
C|-0-1-2-2-1-2-1-0-2-1-0-|

Guitarra I
P.M. ........ ..... ........  
D|---------------------------------| 
A|---------------------------------|  
F|---------------------------------|  3x
C|---------------------------3-3-3-|  
G|-0-1-2-2-1-2-1-0-2-1-0-1-2-3-3-3-|  
C|-0-1-2-2-1-2-1-0-2-1-0-1-2-------|  

4ª vez:

Guitarra I                                  
P.M. ........ .....  ....  ....  .......       .......... ..... ........     
D|-----------------------------------------------------------------------------|
A|-----------------------------------------------------------------------------|
F|-----------------------------------------------------------------------------|
C|---------------------------------------3-3-3---------------------------3-3-3-|
G|-0-1-2-2-1-2-1-0-2-1-0-2-1-0-2-1-0-1-2-3-3-3-0-1-2-2-1-2-1-0-2-1-0-1-2-3-3-3-|
C|-0-1-2-2-1-2-1-0-2-1-0-2-1-0-2-1-0-1-2-------0-1-2-2-1-2-1-0-2-1-0-1-2-------|
                                                                          
Guitarra II                                                                    
    (hits)   x     x     x     x                         x     x                  
D|-----------------------------------------------------------------------------|
A|-----------------------------------------------------------------------------|
F|-----------------------------------------------------------------------------|
C|-----------------------------------------------------------------------------|
G|-----------------------------------------------------------------------------|
C|-----------2-1-0-2-1-0-2-1-0-2-1-0---------------------2-1-0-2-1-0-----------|

Guitarra I                                  
P.M. .......... ..... ......       .......... ..... ........     
D|-----------------------------------------------------------------|
A|-----------------------------------------------------------------|
F|-----------------------------------------------------------------|
C|---------------------------3-3-3---------------------------3-3-3-|
G|-0-1-2-2-1-2-1-0-2-1-0-1-2-3-3-3-0-1-2-2-1-2-1-0-2-1-0-1-2-3-3-3-|
C|-0-1-2-2-1-2-1-0-2-1-0-1-2-------0-1-2-2-1-2-1-0-2-1-0-1-2-------|
                                                                         
Guitarra II                                                                   
    (hits)   x     x                         x     x                 
D|-------------------------------------------------------------------|
A|-------------------------------------------------------------------|
F|-------------------------------------------------------------------|
C|-------------------------------------------------------------------|
G|-------------------------------------------------------------------|
C|-----------2-1-0-2-1-0---------------------2-1-0-2-1-0-------------|

Guitarra I                                  
P.M. ........ .....  ....  ....  .......     
D|---------------------------------------------|
A|---------------------------------------------|
F|---------------------------------------------|
C|---------------------------------------3-3-3-|
G|-0-1-2-2-1-2-1-0-2-1-0-2-1-0-2-1-0-1-2-3-3-3-|
C|-0-1-2-2-1-2-1-0-2-1-0-2-1-0-2-1-0-1-2-------|
                                              
Guitarra II                                       
             x     x     x     x                  
D|---------------------------------------------|
A|---------------------------------------------|
F|---------------------------------------------|
C|---------------------------------------------|
G|---------------------------------------------|
C|-----------2-1-0-2-1-0-2-1-0-2-1-0-----------|

Riff Principal:

Guitarra I
D|-----------------------------------------------------------------| 
A|-----------------------------------------------------------------|  
F|-----------------------------------------------------------------|  4x
C|---------------------------3-3-3---------------------------3-3-3-|  
G|-0-1-2-2-1-2-1-0-2-1-0-1-2-3-3-3-0-1-2-2-1-2-1-0-2-1-0-1-2-3-3-3-|  
C|-0-1-2-2-1-2-1-0-2-1-0-1-2-------0-1-2-2-1-2-1-0-2-1-0-1-2-------|  

Guitarra II
D|-----------------------------------------------------------------| 
A|-----------------------------------------------------------------|  
F|-----------------------------------------------------------------|  4x
C|-----------------------------------------------------------------|  
G|-----------2-----2---------3-3-3-----------2-----2---------3-3-3-|  
C|-0-1-2-2-1-2-1-0-2-1-0-1-2-------0-1-2-2-1-2-1-0-2-1-0-1-2-------|  

As duas guitarras:

     x     x     x     x
D|---------------------------|
A|---------------------------|
F|---------------------------|
C|---------------------------|
G|-0-2-1-0-2-1-0-2-1-0-2-1-0-|
C|-0-2-1-0-2-1-0-2-1-0-2-1-0-|

Riff do Verso:

    ("St. Anger around my neck...)

Guitarra I
let ring...
D|-----------------------------------------|
A|--------1----3-------3-------------------|
F|-------------------0---------------------|
C|-0---------------------------------------|
G|---------------------------1---0---------| 
C|-----------------------------------------|    |
                                                |
Guitarra II                                     |
     let ring...                                | 4x
D|---------------------------------------|      |
A|--------1------------3---3---3---------|      |
F|-------------2-----0-------------------|  
C|-0-------------------------------------|  
G|----------------3------1---0-----------|
C|---------------------------------------|

Distorção on:

 ("You flush it out, you flush it out...")

As duas guitarras:
D|-----------------|-----------------|-----------------|-----------------| 
A|-----------------|-----------------|-----------------|-----------------|  
F|-7-7-7-7-7-7-7-7-|-7-7-7-7-7-7-7-7-|-5-5-5-5-5-5-5-5-|-----------------|  4x
C|-7-7-7-7-7-7-7-7-|-7-7-7-7-7-7-7-7-|-5-5-5-5-5-5-5-5-|-----------------|  
G|-5-5-5-5-5-5-5-5-|-5-5-5-5-5-5-5-5-|-3-3-3-3-3-3-3-3-|-7-7-7-7-7-7-7-7-|  
C|-----------------|-----------------|-----------------|-8-8-8-8-7-7-7-7-|  
                                                       
    C                                  Bb              Ab       G
D|---------------------------------------------------------------------| 
A|---------------------------------------------------------------------|  
F|------------------------------------5--------------------------------|  2x
C|-7-----------------7-7-----7-7------5--------------------------------|  
G|-5-----------------5-5-----5-5------3---------------7--------7-------|  
C|-0--------------------------------------------------8--------7-------|  

("Fuck it all and no regrets, i hit the lights and...")

    C                               Bb              Ab      G
D|-----------------------------------------------------------------| 
A|-----------------------------------------------------------------|  
F|-----------------------------------------------------------------|  8x
C|-7-7-7-7-7-7-7-7-7-7-7-7-7-7-7-7-5-5-5-5-5-5-5-5-----------------|  
G|-5-5-5-5-5-5-5-5-5-5-5-5-5-5-5-5-3-3-3-3-3-3-3-3-7-7-7-7-7-7-7-7-|  
C|-------------------------------------------------8-8-8-8-7-7-7-7-|  

   x              x  x    x  x    x  x    x  x
         C
D|-------------------------------------------------|
A|-------------------------------------------------|
F|-------------------------------------------------|
C|-7-----------------------------------------------|
G|-5--------------0--0----0--0----0--0----0--0-----|
C|-0--------------0--0----0--0----0--0----0--0-----|

Guitarra I                                
 P.M......... ..... .......              
D|---------------------------------|
A|---------------------------------|
F|---------------------------------|
C|---------------------------3-3-3-|
G|-0-1-2-2-1-2-1-0-2-1-0-1-2-3-3-3-|
C|-0-1-2-2-1-2-1-0-2-1-0-1-2-------|

Guitarra II             
D|-----------------|
A|-----------------|
F|-----------------|
C|-----------------|
G|---------3-3-3-3-|
C|-0-1-2-2---------|

(Riff Pricipal - Banda Toda)

(Riff do Verso)

Intro:

Guitarra I:

P.M. ........ ..... ........
D|---------------------------------| 
A|---------------------------------|  
F|---------------------------------|  4x
C|---------------------------------|  
G|-----------2-----2---------3-3-3-|  
C|-0-1-2-2-1-2-1-0-2-1-0-1-2-------|  

P.M. ........ ..... ........  
D|---------------------------------| 
A|---------------------------------|  
F|---------------------------------|  3x
C|---------------------------3-3-3-|  
G|-0-1-2-2-1-2-1-0-2-1-0-1-2-3-3-3-|  
C|-0-1-2-2-1-2-1-0-2-1-0-1-2-------|  

4ª vez:

Guitarra I                                  
P.M. ........ .....  ....  ....  .......       .......... ..... ........     
D|-----------------------------------------------------------------------------|
A|-----------------------------------------------------------------------------|
F|-----------------------------------------------------------------------------|
C|---------------------------------------3-3-3---------------------------3-3-3-|
G|-0-1-2-2-1-2-1-0-2-1-0-2-1-0-2-1-0-1-2-3-3-3-0-1-2-2-1-2-1-0-2-1-0-1-2-3-3-3-|
C|-0-1-2-2-1-2-1-0-2-1-0-2-1-0-2-1-0-1-2-------0-1-2-2-1-2-1-0-2-1-0-1-2-------|
                                                                          
Guitarra II                                                                    
    (hits)   x     x     x     x                         x     x                  
D|-----------------------------------------------------------------------------|
A|-----------------------------------------------------------------------------|
F|-----------------------------------------------------------------------------|
C|-----------------------------------------------------------------------------|
G|-----------------------------------------------------------------------------|
C|-----------2-1-0-2-1-0-2-1-0-2-1-0---------------------2-1-0-2-1-0-----------|

Guitarra I                                  
P.M. .......... ..... ......       .......... ..... ........     
D|-----------------------------------------------------------------|
A|-----------------------------------------------------------------|
F|-----------------------------------------------------------------|
C|---------------------------3-3-3---------------------------3-3-3-|
G|-0-1-2-2-1-2-1-0-2-1-0-1-2-3-3-3-0-1-2-2-1-2-1-0-2-1-0-1-2-3-3-3-|
C|-0-1-2-2-1-2-1-0-2-1-0-1-2-------0-1-2-2-1-2-1-0-2-1-0-1-2-------|
                                                                         
Guitarra II                                                                   
    (hits)   x     x                         x     x                 
D|-------------------------------------------------------------------|
A|-------------------------------------------------------------------|
F|-------------------------------------------------------------------|
C|-------------------------------------------------------------------|
G|-------------------------------------------------------------------|
C|-----------2-1-0-2-1-0---------------------2-1-0-2-1-0-------------|

Guitarra I                                  
P.M. ........ .....  ....  ....  .......     
D|---------------------------------------------|
A|---------------------------------------------|
F|---------------------------------------------|
C|---------------------------------------3-3-3-|
G|-0-1-2-2-1-2-1-0-2-1-0-2-1-0-2-1-0-1-2-3-3-3-|
C|-0-1-2-2-1-2-1-0-2-1-0-2-1-0-2-1-0-1-2-------|
                                              
Guitarra II                                       
             x     x     x     x                  
D|---------------------------------------------|
A|---------------------------------------------|
F|---------------------------------------------|
C|---------------------------------------------|
G|---------------------------------------------|
C|-----------2-1-0-2-1-0-2-1-0-2-1-0-----------|
(Riff Principal - Toda a Banda)

As duas guitarras:

D|-----------------------------------------------------------------|
A|-----------------------------------------------------------------|  
F|-----------------------------------------------------------------|  13x
C|---------------------------3-3-3---------------------------3-3-3-|  
G|-0-1-2-2-1-2-1-0-2-1-0-1-2-3-3-3-0-1-2-2-1-2-1-0-2-1-0-1-2-3-3-3-|  
C|-0-1-2-2-1-2-1-0-2-1-0-1-2-------0-1-2-2-1-2-1-0-2-1-0-1-2-------|  

  (hits)
   x     x     x     x
D|-------------------------|
A|-------------------------|
F|-------------------------|
C|-------------------------|
G|-2-1-0-2-1-0-2-1-0-2-1-0-|
C|-2-1-0-2-1-0-2-1-0-2-1-0-|

("Fuck it all and no regrets, i hit the lights and...")

    C                               Bb              Ab      G
D|-----------------------------------------------------------------|
A|-----------------------------------------------------------------|  
F|-----------------------------------------------------------------|  10x
C|-7-7-7-7-7-7-7-7-7-7-7-7-7-7-7-7-5-5-5-5-5-5-5-5-----------------|  
G|-5-5-5-5-5-5-5-5-5-5-5-5-5-5-5-5-3-3-3-3-3-3-3-3-7-7-7-7-7-7-7-7-|  
C|-------------------------------------------------8-8-8-8-7-7-7-7-|  
   x              x  x    x  x    x  x    x  x
    C
D|-------------------------------------------------|
A|-------------------------------------------------|
F|-------------------------------------------------|
C|-7-----------------------------------------------|
G|-5--------------0--0----0--0----0--0----0--0-----|
C|-0--------------0--0----0--0----0--0----0--0-----|

Final:

Guitarra I                                
P.M.......... ..... ........              
D|-------------------------------------|
A|-------------------------------------|
F|-------------------------------------|
C|---------------------------3-3-3---0-|
G|-0-1-2-2-1-2-1-0-2-1-0-1-2-3-3-3---0-|
C|-0-1-2-2-1-2-1-0-2-1-0-1-2---------0-|

Guitarra II             
D|-------------------------------------|
A|-------------------------------------|
F|-------------------------------------|
C|-----------------------------------0-|
G|---------3-3-3-3-------------------0-|
C|-0-1-2-2---------------------------0-|
Composição de Bob Rock / James Hetfield / Kirk Hammett / Lars Ulrich
Colaboração e revisão:
  • Nicolas Santos
127.450 exibições
    • ½ Tom
    • A
    • Bb
    • B
    • C
    • Db
    • D
    • Eb
    • E
    • F
    • F#
    • G
    • Ab
  • Adicionar à lista

    0 comentários

    Ver todos os comentários

    Conseguiu tocar?

    6 Tocaram 0 Ainda não

    Grave um vídeo tocando St. Anger e nos envie!

    00:00 / 00:00
    outros vídeos desta música
    repetir qualidade Automático
    Outros vídeos desta música
    00:00 / 00:00
    Automático

    Cifra Club Pro

    Aproveite o Cifra Club com benefícios exclusivos e sem anúncios
    Cifra Club Pro
    Aproveite o Cifra Club com benefícios exclusivos e sem anúncios
    OK