Cifra Club

Aprenda

The Unforgiven

Metallica

Cifra: Versão 3 (violão e guitarra)
tom: E
Slowly ( 0--- =69 )

THE INTRO PART:
---------------
4/4 timing
 Gtr II (electric, clean tone)                     H            ~~~~~
|---------------------------------|---------------------------------|
|---------------------------------|---------------------------------|
|---------------------------------|---------2---4-5b4-------5-4-2---|
|---------------------------------|---------------------------------|
|---------------------------------|---------------------------------|
|---------------------------------|---------------------------------|
|Gtr I. (acous.)
| let ring            Play 4 times
|---------------------------------|---------------------------------|
|.0-------0-----0-----0-----1----.|-0-------0-----0-----1-----1-----|
|-----2-----2-----2-----2-----2---|-----2-----2-----2-----2-----2---|
|.------2-----2-----2-----2-----2.|-------2-----2-----2-----2-----2-|
|-0-------------------------------|-0-------------------------------|
|---------------------------------|---------------------------------|

 ~~~~~~~~        H          ~~~~~~~~~~~~~~~                     ~~~~~
|---------------------------------|---------------------------------|
|---------------------------------|---------------------------------|
|(2)------2---4-4b5-------5-2-----|(2)------2---4-4b5-------5-4-2---|
|---------------------------------|---------------------------------|
|---------------------------------|---------------------------------|
|---------------------------------|---------------------------------|
|
|
|---------------------------------|---------------------------------|
|-0-------0-----1-----1-----1-----|-0-------0-----0-----1-----1-----|
|-----2-----2-----2-----2-----2---|-----2-----2-----2-----2-----2---|
|-------2-----2-----2-----2-----2-|-------2-----2-----2-----2-----2-|
|-0-------------------------------|-0-------------------------------|
|---------------------------------|---------------------------------|

 ~~~~~~~~        H          ~~~~~~~~~~~~~~~
|---------------------------------|---------------------------------|
|---------------------------------|---------------------------------|
|(2)------2---4-4b5-------5-2-----|(2)------2---4-4b5----4b5------5-|
|---------------------------------|---------------------------------|
|---------------------------------|---------------------------------|
|---------------------------------|---------------------------------|
|
|
|---------------------------------|---------------------------------|
|-0-------0-----1-----1-----1-----|-------------0---1-------1-----1-|
|-----2-----2-----2-----2-----2---|---------2-----------------------|
|-------2-----2-----2-----2-----2-|-----2-----------------2-----2---|
|-0-------------------------------|-0-------------------3-----------|
|---------------------------------|---------------------------------|

     ~~~~~~~~ sl             H                     H       H
|---------------------------------|---------------------------------|
|---------------------------------|-----------------------3b5-----5-|
|-5-4---------4\----------2-2b4---|-2-------2---4-4b5---------------|
|-----5-----------2---------------|---------------------------------|
|---------------------------------|---------------------------------|
|---------------------------------|---------------------------------|
|
|                              H
|---------------------------------|-------------------------0-----0-|
|---------------------------------|-------------0---1-----------1---|
|-----0-------0-----------2---2b4-|-2-------2-----------------------|
|---0-------------2---2-2---------|-------2---------------2---------|
|---------------------------------|-----0---------------3-----------|
|-3-------3-----------------------|---------------------------------|

               sl        sl    H    ~~~~~~~~~~~~~~~~~~~~~~~~~~~~~~~~
|---------------------------------|---------------------------------|
|-5-3-----------------------------|---------------------------------|
|-----4-------4\--1------\4-1-2b4-|-2-------------------------------|
|---------------------------------|---------------------------------|
|---------------------------------|---------------------------------|
|---------------------------------|---------------------------------|
|
|
|---------------------------------|---------------------------------|
|-1-3-0-------3-------------------|---------0-----0-----0-----1-----|
|-----------------1---1---4-1-2b4-|-----2-----2-----2-----2-----2---|
|---------------------------------|-------2-----2-----2-----2-----2-|
|---------------------------------|-0-------------------------------|
|---------3-----------------------|---------------------------------|

(Gtr.II out)
|---------------------------------||
|---------------------------------||
|---------------------------------||
|---------------------------------||
|---------------------------------||
|---------------------------------||
|
|                        (Gtr.I out)
|---------------------------------||
|-0-------0-----0-----0-----1-----||
|-----2-----2-----2-----2---------||
|-------2-----2-----2-----2-------||
|-0-------------------------------||
|---------------------------------||

VERSE PART
~~~~~~~~~~

             H    ~~~~~~~
|---------------------------------|---------------------------------|
|.----------------------------8---|-8---7---7-----------------------|
|-7---5---4-4b5-------------------|-------------5---5-----------7---|
|-----------------5---------------|---------------------------------|
|.--------------------------------|---------------------------------|
|---------------------------------|---------------------------------|
 New  blood_joins this earth  and quickly he's sub-dued       Through


|---------------------------------|---------------------------------|
|---------------------------------|---------------------------------|
|---------------------------------|---------------------------------|
|---------------------------------|---------------------------------|
|---------------------------------|---------------------------------|
|---------------------------------|---------------------------------|
constant pain_ disgrace,- the young _boy_ learns their rules._   With

|---------------------------------|---------------------------------|
|---------------------------------|---------------------------------|
|---------------------------------|---------------------------------|
|---------------------------------|---------------------------------|
|---------------------------------|---------------------------------|
|---------------------------------|---------------------------------|
time the child draws in      this whipping boy done wrong.        De-

             H    ~~~~~~~         2/4 timing
|---------------------------------|-----------------|
|-----------------------------8---|-8---7---7-------|
|-7---5---4-4b5-------------------|-------------5---|
|-----------------5---------------|-----------------|
|---------------------------------|-----------------|
|---------------------------------|-----------------|
prived of all_his_ thoughts, the young_ man struggles

    P.M--|  P.M--|  P.M--|  P.M--|
|---------------------------------|---------------------------------|
|---------------------------------|---------------------------------|
|-5-------4-------2-------0-------|---------------------------------|
|---0-------0-------0-------0-----|-5-------------------------------|
|-----0-0-----0-0-----0-0-----0-0-|-3---------5-3-0-5---------------|
|---------------------------------|-----------------3---------------|
on and  on. He knows,_      oo, a  vow unto   his own            that

    P.M--|  P.M--|  P.M--|  P.M--|
|---------------------------------|---------------------------------|
|---------------------------------|---------------------------------|
|-5-------4-------2-------0-------|---------------------------------|
|---0-------0-------0-------0-----|-5-------------------------------|
|-----0-0-----0-0-----0-0-----0-0-|-3---------5-3-0-3---------------|
|---------------------------------|-----------------5---------------|
never from_ this day_         his will they'll take a - way__________

2/4 timing
|----------------||
|----------------||
|----------------||
|----------------||
|-2--------------||
|-0--------------||
______________

CHORUS PART
~~~~~~~~~~~
Gtr II
mf                       ~~~~~~~        ~~~~~~~  sl.           H
|---------------------------------|---------------------------------|
|---------------------------------|---------------------------------|
|--------2---4---5-------5------5-|-5-4---------4\----------2-2b4---|
|---------------------------------|-----5-----------2---------------|
|---------------------------------|---------------------------------|
|---------------------------------|---------------------------------|
What I've felt,__  what I've   known never shined through in what I've

  ~~~~~~~~        ~~~~~~~~
|---------------------------------|---------------------------------|
|-------------------------5-----5-|-5-3-----------------------------|
|-2-------2---4---5---------------|-----4-------4\--1------\4-1-2b4-|
|---------------------------------|---------------------------------|
| --------------------------------|---------------------------------|
|---------------------------------|---------------------------------|
shown. Never be.___   Never see.______  Won't see what_ might have___

  ~~~~~~~         ~~~~~~~~              ~~~~~~~  sl.           H
|---------------------------------|---------------------------------|
|---------------------------------|---------------------------------|
|-2-------2---4---5-------5-----5-|-5-4---------4\----------2-2b4---|
|---------------------------------|-----5-----------2---------------|
|---------------------------------|---------------------------------|
|---------------------------------|---------------------------------|
been.What I've felt,what I've known,never shined through in what I've shown

  ~~~~~~~         ~~~~~~~               ~~~~~~~~ sl.       sl.   H
|---------------------------------|---------------------------------|
|-------------------------5-----5-|-5-3-----------------------------|
|-2-------2---4---5---------------|-----4-------4\--1------\4-1-2b4-|
|---------------------------------|---------------------------------|
|---------------------------------|---------------------------------|
|---------------------------------|---------------------------------|
          Never free.     Never me.           So I dub thee unforgiv-

  ~~~~~~~~~~~~~~~~~~~~~~~~~~~~~~~  Played after 1st verse
|---------------------------------|---------------------------------|
|---------------------------------|--------------------------------.|
|-2-------------------------------|---------------------------------|
|---------------------------------|---------------------------------|
|---------------------------------|--------------------------------.|
|---------------------------------|---------------------------------|
en.                                                            2.They

 Play after 2nd verse                Interlude
 Gtr. I                             Gtr. II
|---------------------------------||---------------------------------|
|-0-------0-----0-----0-----1-----||---------------------------------|
|-----2-----2-----2-----2-----2---||---4-5-7-5-4b5b4---4-------------|
|-------2-----2-----2-----2-----2-||-7---------------7---5-5b7-------|
|-0-------------------------------||---------------------------------|
|---------------------------------||---------------------------------|

To be continued....

Additional Lyrics:

2. They dedicate their lives to running all of his
He tries to please them all, this bitter man he is
Throughout the life the same, he's battled constantly
This fight he cannot win. A tired man they see no longer cares.
The old man then prepares to die regretfully
That old man here is me. (To Chorus)

Interlude w/ reverb
Played by Kirk

|-------------------------------------------------|
|-----------------------------0-1-3-5-3-1-0h1/3---|
|---4-5-7-5-4h5p4---4-----------------------------|
|-7---------------7---5-5h7-----------------------|
|-------------------------------------------------|
|-------------------------------------------------|

|--3\5-3--2---------------------------------------|
|--3\5-3--3--3h5h3-3------------------------------|
|--------------------4-----------------5----------|
|----------------------5-------------5---5-5/7----|
|----------------------------3/5-6-7--------------|
|------------------------3-5----------------------|

|-------------------7---7-----10--------12---------14-----15--17--|
|--8-7h8p7---7-8-10---8---8-8----8-8/10---10-10/12---12-12--14----|
|----------9------------------------------------------------------|
|-----------------------------------------------------------------|
|-----------------------------------------------------------------|
|-----------------------------------------------------------------|


Solo: also by Kirk (i didnt figure this out, my friend did)
w/ distortion
|-----------------------------------------------------------------|
|--7b--7b---------------------------------------------------------|
|--7b--7b--5------------------------------------5--7--5-7-7/9-7-9-|
|------------7--7b--5------------------------/7-------------------|
|---------------------7-5/3-5-3--------3b-------------------------|
|-------------------------------5-3-5-----------------------------|
                                        (extreme repeated bending) 
|----------------10-------8------10------------------------|
|-7--7-8-7h8--10----10--10--10-10--10----20bbbbbbbbb-17----|
|---9------------------------------------------------------|
|----------------------------------------------------------|
|----------------------------------------------------------|
|----------------------------------------------------------|

|-20b--20bbb--17-17-20p17----17--------------10p9-7-9---9---------|
|-------------------------20----20b------------------10---8-7---7-|
|-----------------------------------------\9------------------9---|
|-------------------------------------17\-------------------------|
|-----------------------------------------------------------------|
|-----------------------------------------------------------------|

|------------------------------12--------12-------12-------12---------|
|---------------------------13----13--------13-------13-------13------|
|-9-7\5-7-5\4-5-4-2----\14-----------14--------14-------14-------14---|
|---------------------------------------------------------------------|
|---------------------------------------------------------------------|
|---------------------------------------------------------------------|

|-12--------12-------12--------------------------------------17-19-20-|
|----13--------13-------13----------------------20b---20b-------------|
|-------14--------14-------14----19^----19b--17-----------------------|
|---------------------------------------------------------------------|
|---------------------------------------------------------------------|
|---------------------------------------------------------------------|

|-19-17-19--17h19p17-----17-------------------------------------------|
|-------------------20b----20-17----20-17-----------------------------|
|-------------------------------19b------19-19bp17-19bp17--19b-19b-17-|
|---------------------------------------------------------------------|
|---------------------------------------------------------------------|
|---------------------------------------------------------------------|

|-------------------------------------------------|
|-20~~~---18h20p18---17~~~~~--18p17~~~~~~~~~~-----|
|-------------------------------------------------|
|-------------------------------------------------|
|-------------------------------------------------|
|-------------------------------------------------|




Letra:

New blood joins this earth
And quickly he's subdued
Though constant pained desgrace
The young boy learns their rules

With time the child draws in
This whipping boy done wrong
Deprived of all his thoughts
The young man struggles on and on he's known 
A vow unto his own
That never from this day
His will they'll take away 

What I've felt
What I've known
Never shined through in what I've shown
Never be
Never see
Won't see what might have been

What I've felt 
What I've known 
Never shined through in what I've shown
Never free
Never me 
So a dub thee unforgiven 

They dedicate their lives
To running all of his 
He tries to please them all
This bitter man he is 
Thoroughout his life the same 
He's battled constantly 
This fight he cannot win
A tired man they see no longer cares
The old man then prepares 
To die regretfully
That old man here is me 

What I've felt 
What I've known 
Never shined through in what I've shown
Never be 
Never see
Won't see what might have been

What I've felt
What I've known
Never shined through in what I've shown 
Never free 
Never me
So a dub thee unforgiven

You labeled me
I'll label you 
So a dub thee unforgiven
Composição de James Hetfield / Kirk Hammett / Lars Ulrich
Colaboração e revisão:
  • joao liberasto
211.082 exibições
  • Simplificar cifra
    • ½ Tom
    • A
    • Bb
    • B
    • C
    • Db
    • D
    • Eb
    • E
    • F
    • F#
    • G
    • Ab
  • Adicionar à lista

    0 comentários

    Ver todos os comentários
    00:00 / 00:00
    outros vídeos desta música
    repetir qualidade Automático
    Outros vídeos desta música
    00:00 / 00:00
    Automático
    Capítulos
    • Início
    • Tocando a música
    • Dedilhado da intro (guitarra base)
    • Tocando intro (guitarra base)
    • Ensinando dedilhando (Base - Parte 1)
    • Ensinando dedilhando (Base - Parte 2 e 3)
    • Ensinando dedilhando (Base - Parte 4 e 5)
    • Dicas do dedilhado (palheta)
    • Ensinando dedilhando (Base 2 - Parte 1)
    • Ensinando dedilhando (Base 2 - Parte 2)
    • Ensinando dedilhando (Base 2 - Parte 3)
    • Ensinando intro (guitarra solo)
    • Ensinando intro (guitarra solo - variação)
    • Tocando intro 2 (guitarra solo)
    • Ensinando intro 2 (guitarra solo - Parte 1)
    • Ensinando intro 2 (guitarra solo - Parte 2)
    • Tocando primeira parte (Riff 1)
    • Ensinando Riff 1 (Parte 1 e 2)
    • Ensinando Riff 1 (Parte 3 e 4)
    • Tocando segunda parte
    • Dicas para o solo
    • Tocando Solo
    • Ensinando Solo 1 (Parte 1)
    • Ensinando Solo 1 (Parte 2)
    • Ensinando Solo 1 (Parte 3)
    • Ensinando Solo 1 (Parte 4)
    • Ensinando Solo 1 (Parte 5)
    • Ensinando Solo 1 (Parte 6)
    • Ensinando base do solo 2 (Parte 1)
    • Ensinando base do solo 2 (Parte 2)
    • Ensinando Solo 2 (Parte 1)
    • Ensinando Solo 2 (Parte 2)
    • Ensinando Solo 2 (Parte 3)
    • Ensinando Solo 2 (Parte 4)
    • Ensinando Solo 2 (Parte 5)
    • Ensinando Solo 2 (Parte 6)
    • Ensinando Solo 2 (Parte 7)
    • Ensinando Solo 2 (Parte 8)
    • Ensinando Solo 2 (Parte 9)
    • Ensinando Solo 2 (Parte 10)
    • Ensinando Solo 2 (Parte 11)
    • Ensinando Solo 2 (Parte 12)
    • Tocando trecho e dicas (Parte 10 - 12)
    • Tocando trecho final
    • Ensinando Solo final (Frases)
    • Encerramento

    Cifra Club Pro

    Aproveite o Cifra Club com benefícios exclusivos e sem anúncios
    Cifra Club Pro
    Aproveite o Cifra Club com benefícios exclusivos e sem anúncios
    OK