Cifra Club

Aprenda

The Unforgiven

Metallica

Cifra: Versão 7 (violão e guitarra)
tom: E
INTRO:

FIRST PART:

|---------------------------------------------------------------------| 5X
|--0-----0---------0---------0-----------1----------------------------|
|--2-------2----------2---------2-----------2-------------------------|
|--2---------2-----------2---------2-----------2----------------------|
|---------------------------------------------------------------------|
|---------------------------------------------------------------------|

SECOND PART:

|----------------|-----------------|----------------|-----------------|
|----------------|-----------------|----------------|-----------------|
|-1--3-4--4-3-1--|-1--3-4--4--1----|-1--3-4--4-3-1--|--1--3-4--4--1---|
|----------------|-----------------|----------------|-----------------|
|----------------|-----------------|----------------|-----------------|
|----------------|-----------------|----------------|-----------------|

|---------------------------------------------------------------------|
|----------------------------|----------------------------------------|
|-1--3-4-4-4-4-3-0-3---1-3-1-|-1--3-4--7-7-7-4--0-3-----3-----3-1-----|
|--------------------1-------|----------------------2-2---1-1---------|
|----------------------------|----------------------------------------|
|---------------------------------------------------------------------|
Composição de James Hetfield / Kirk Hammett / Lars Ulrich
Colaboração e revisão:
  • moderador musicas
  • Felipe
14.746 exibições
  • Simplificar cifra
    • ½ Tom
    • A
    • Bb
    • B
    • C
    • Db
    • D
    • Eb
    • E
    • F
    • F#
    • G
    • Ab
  • Adicionar à lista

    0 comentários

    Ver todos os comentários
    00:00 / 00:00
    outros vídeos desta música
    repetir qualidade Automático
    Outros vídeos desta música
    00:00 / 00:00
    Automático
    Capítulos
    • Início
    • Tocando a música
    • Dedilhado da intro (guitarra base)
    • Tocando intro (guitarra base)
    • Ensinando dedilhando (Base - Parte 1)
    • Ensinando dedilhando (Base - Parte 2 e 3)
    • Ensinando dedilhando (Base - Parte 4 e 5)
    • Dicas do dedilhado (palheta)
    • Ensinando dedilhando (Base 2 - Parte 1)
    • Ensinando dedilhando (Base 2 - Parte 2)
    • Ensinando dedilhando (Base 2 - Parte 3)
    • Ensinando intro (guitarra solo)
    • Ensinando intro (guitarra solo - variação)
    • Tocando intro 2 (guitarra solo)
    • Ensinando intro 2 (guitarra solo - Parte 1)
    • Ensinando intro 2 (guitarra solo - Parte 2)
    • Tocando primeira parte (Riff 1)
    • Ensinando Riff 1 (Parte 1 e 2)
    • Ensinando Riff 1 (Parte 3 e 4)
    • Tocando segunda parte
    • Dicas para o solo
    • Tocando Solo
    • Ensinando Solo 1 (Parte 1)
    • Ensinando Solo 1 (Parte 2)
    • Ensinando Solo 1 (Parte 3)
    • Ensinando Solo 1 (Parte 4)
    • Ensinando Solo 1 (Parte 5)
    • Ensinando Solo 1 (Parte 6)
    • Ensinando base do solo 2 (Parte 1)
    • Ensinando base do solo 2 (Parte 2)
    • Ensinando Solo 2 (Parte 1)
    • Ensinando Solo 2 (Parte 2)
    • Ensinando Solo 2 (Parte 3)
    • Ensinando Solo 2 (Parte 4)
    • Ensinando Solo 2 (Parte 5)
    • Ensinando Solo 2 (Parte 6)
    • Ensinando Solo 2 (Parte 7)
    • Ensinando Solo 2 (Parte 8)
    • Ensinando Solo 2 (Parte 9)
    • Ensinando Solo 2 (Parte 10)
    • Ensinando Solo 2 (Parte 11)
    • Ensinando Solo 2 (Parte 12)
    • Tocando trecho e dicas (Parte 10 - 12)
    • Tocando trecho final
    • Ensinando Solo final (Frases)
    • Encerramento

    Cifra Club Pro

    Aproveite o Cifra Club com benefícios exclusivos e sem anúncios
    Cifra Club Pro
    Aproveite o Cifra Club com benefícios exclusivos e sem anúncios
    OK