Cifra Club

Levemente Alterado

Michel Teló

Cifra: Principal
exibições 79.307
Tom: D
Intro: Bm G D A (2x)

E|------------------------------------------------|
B|--7---7--7-5------------------------------------|
G|4---4--------7-4----7-7-7-7-6-6-6-6--7-6-4---4--|
D|-----------------7-------------------------7----|
A|------------------------------------------------|
E|------------------------------------------------|

E|--------------------------------------------|
B|--7---7--7-5--------------------------------|
G|4---4--------7-4----7-7-7-7-6-6--7-6-4---4--|
D|-----------------7---------------------7----|
A|--------------------------------------------|
E|--------------------------------------------|

Bm
Relaxa aí,
    G
Que eu tô bem
    D
Vim de carona
A
Então nem vem
       Bm
Porque água eu bebo em casa
        G
Hoje eu vim aqui
               D
Pra encontrar você

Vamos festar
A
Até amanhecer
G         Em          (A A) (F# F#  F# F# F#)
E a noite apenas começou

Refrão:
  Bm
E tá tudo girando
    G        D
Tá, tudo embaçado
                 A
Mas não tô bebo, não
                   Bm
Tô levemente alterado

Tudo girando
    G         D
Tá, tudo embaçado
                   A
Mais não tô bebo, não
                  Bm
Tô levemente alterado...

Intro: Bm G D A (2x)

E|------------------------------------------------|
B|--7---7--7-5------------------------------------|
G|4---4--------7-4----7-7-7-7-6-6-6-6--7-6-4---4--|
D|-----------------7-------------------------7----|
A|------------------------------------------------|
E|------------------------------------------------|

E|--------------------------------------------|
B|--7---7--7-5--------------------------------|
G|4---4--------7-4----7-7-7-7-6-6--7-6-4---4--|
D|-----------------7---------------------7----|
A|--------------------------------------------|
E|--------------------------------------------|

Bm
Relaxa aí,
    G
Que eu tô bem
    D
Vim de carona
A
Então nem vem
       Bm
Eu não vou ficar em casa
        G
Hoje eu vim aqui
               D
Pra encontrar você

Vamos festar
A
Até amanhecer
G         Em          (A  A)  (F# F#  F# F# F#)
E a noite apenas começou

Refrão:
  Bm
E tá tudo girando
    G        D
Tá, tudo embaçado
                 A
Mas não tô bebo, não
                   Bm
Tô levemente alterado

Tudo girando
    G         D
Tá, tudo embaçado
                   A
Mais não tô bebo, não
                  Bm
Tô levemente alterado

Tudo girando
    G         D
Tá, tudo embaçado
                   A
Mais não tô bebo, não
                  Bm
Tô levemente alterado

Tudo girando
    G         D
Tá, tudo embaçado
                   A
Mais não tô bebo, não
                  Bm
Tô levemente alterado...

Intro: Bm G D A (1x)

E|------------------------------------------------|
B|--7---7--7-5------------------------------------|
G|4---4--------7-4----7-7-7-7-6-6-6-6--7-6-4---4--|
D|-----------------7-------------------------7----|
A|------------------------------------------------|
E|------------------------------------------------|

Bm
E tá tudo girando
    G        D
Tá, tudo embaçado
                 A
Mas não tô bebo, não...

Bm
Relaxa aí,
    G        Bm
Que eu tô bem...
Acordes para:

    0 comentários

      mostrar mais comentários

      Conseguiu tocar?

      12tocaram0ainda não

      Grave um vídeo tocando Levemente Alterado e mande pra gente!

      00:00 / 00:00
      outros vídeos desta música
      repetirqualidadeautomática
      Outro vídeos desta música
        00:00 / 00:00
        automática
        OK