Enviar cifraEntrar

Louve e Adore

Michelle Nascimento

Cifra: Principal
exibições 87.025
Tom: C
Intro 2x:  Am  F  C  G


E|---------------------|-----------------------|-------------------17-15-|
B|-5-3-5---5---5-------|-10-8-10----10---10----|13----13----13-----------|
G|-------5---4---2--5--|---------10----9----10-|---14----14----14--------|
D|---------------------|-----------------------|-------------------------|
A|---------------------|-----------------------|-------------------------|
E|---------------------|-----------------------|-------------------------|


                                     (2X)

E|------------------------|-------------------------|
B|-----13-15b17b15----8---|-17-15-17----17----17----|
G|-12---------------7---4-|----------17----16----14-|
D|------------------------|-------------------------|
A|------------------------|-------------------------|
E|------------------------|-------------------------|


E|-13-12-13----13-------------------13----17-13-15--24~-----22~-|
B|----------13-------13-------13-------13---------------20------|
G|----------------14-------14----14-----------------------------|
D|----------------------15--------------------------------------|
A|--------------------------------------------------------------|
E|--------------------------------------------------------------|



Am
Não vou me deixar vencer pelo inimigo
 F
Vou lutar, vou conquistar, eu sei Deus é comigo
 Dm                                     E4 E
Mesmo que as flechas venham para me atingir

O meu coração guardado está em Ti
 Am
O senhor é o meu refúgio e minha fortaleza
 F
Eu posso dizer sou forte até na minha fraqueza
 Dm                                     E4 E
Estou armado, fui treinado pelo meu Senhor

Minha armadura é a palavra e o meu louvor

Am
Vai entrar no terreno do inimigo
 F
Vai libertar os cativos e oprimidos
 C
Vai trazer alegria ao coração
 E4
O louvor é a arma que Deus

Entregou em minhas mãos
Am
Vou louvar, e verei milagres
 F
Vou louvar e prisões se abrem
 Dm                                      F  E
Vou louvar, já estou vendo algo acontecer
        F  E          F  E
Vou louvar, eu quero ver

Refrão 2x:
Am           F
O céu mover, o céu se abrir
 C              G
A terra tremer, Deus descer aqui
Am              F
Com autoridade, com muito poder
 C               G
Louve e adore até Deus responder

( Am  F  C  G )

Am
Vai entrar no terreno do inimigo...
F
Vai libertar os cativos e oprimidos
 C
Vai trazer alegria ao coração
 E
O louvor é a arma que Deus

Entregou em minhas mãos
Am
Vou louvar, e verei milagres
 F
Vou louvar, e prisões se abrem
 Dm                                      F  E
Vou louvar, já estou vendo algo acontecer
        F  E          F  E
Vou louvar, eu quero ver

Refrão 2x:
Am           F
O céu mover, o céu se abrir
 C              G
A terra tremer, Deus descer aqui
Am              F
Com autoridade, com muito poder
 C               G
Louve e adore até Deus responder

( Am  F )

Dm             Am             F
Louve e adore, louve e adore, louve e adore
 Am            C               E        F
O seu mover, o céu se abrir, a terra tremer
F              Am               F
Louve e adore, louve e adore, louve e adore
 E
Até Deus responder

Refrão 2x:

Am           F
O céu mover, o céu se abrir
 C              G/B
A terra tremer, Deus descer aqui
Am              F
Com autoridade, com muito poder
 C               G/B
Louve e adore até Deus responder

Am    F        C        G/B
Louve, louve, louve.. a Deus
Am     F      C         G/B
Louve, louve, louve até Deus responder

( Am )
  • 1
  • 2
  • 3
  • 4
  • 5
  • 6
  • 7
  • 8
  • 9
  • 10
  • 11
  • 12
    Acordes para:

      0 comentários

        mostrar mais comentários

        Conseguiu tocar?

        20tocaram0ainda não

        Grave um vídeo tocando Louve e Adore e mande pra gente!

        00:00 / 00:00
        outros vídeos desta música
        repetirqualidadeautomática
        • automática
        Outro vídeos desta música
          00:00 / 00:00
          automática
          • automática
          Acordes para:violão e guitarra
          dificuldadeexibiçõescontribuições
          2 versões de Partiturasformatodownloadscontribuição
          fecharplay/pause subir/descer velocidade
            acordes
            fechar
            OK
            Feedback