Cifra Club

Aprenda

Olharei Para o Alto

Midian Lima

Cifra: Principal (violão e guitarra)
tom: E
[Intro] E  C#m  F#m  Am

[Primeira Parte]

E                  C#m
  Mesmo na tribulação
                     F#m
Posso não ver a sua mão
                       Am
Mas sei que posso confiar
                        E
Em Deus eu posso descansar
                        C#m
Mesmo vendo tudo se acabar
                        F#m
Sei que nada vai me faltar
                       Am
Lá do alto vem a provisão

O meu milagre está em suas mãos

[Refrão]

E
  Eu olharei pro alto
C#m
    De onde vem socorro
F#m
    E é firme na rocha
Am
   Que eu terei vitória
E
  Eu olharei para o céu
C#m
    De onde vem a benção
F#m
    Terei o testemunho
A
  E contarei ao mundo
       B       E
Que tu és meu Deus

[Solo] E  C#m  F#/A#  Am

Parte 1 De 2

E|-5/7-7-5-5-4-4--------7-5-5-4-4----------------|
B|----------------5-7-5--------------------------|
G|-----------------------------------------------|
D|-----------------------------------------------|
A|-----------------------------------------------|
E|-----------------------------------------------|

Parte 2 De 2

E|-------9--------8-7-5--------------------------|
B|-5-7-5---9-7-5---------5-----------------------|
G|-------------------------5-4~~-----------------|
D|-----------------------------------------------|
A|-----------------------------------------------|
E|-----------------------------------------------|

[Primeira Parte]

E                  C#m
  Mesmo na tribulação
                     F#m
Posso não ver a sua mão
                       Am
Mas sei que posso confiar
                        E
Em Deus eu posso descansar
                        C#m
Mesmo vendo tudo se acabar
                  C#m/E    F#m
Sei que nada vai me    faltar
                       Am
Lá do alto vem a provisão

O meu milagre está em suas mãos

[Refrão]

E                  B/D#
  Olharei pro alto
C#m                     
    De onde vem socorro
F#m
    E é firme na rocha
Am
   Que eu terei vitória
E
  Eu olharei para o céu
C#m
    De onde vem a benção
F#m                    
    Terei o testemunho
A
  E contarei ao mundo
       B       E
Que tu és meu Deus

[Segunda Parte]

                A
Quando a minha força se esgotar
           E/G#
E tudo em mim desmoronar
      F#/A#
Então olharei para ti
   Am           E
E confiarei em teu amor
E/G#        A
E quando o vento então soprar
               E/G#
Eu sei que em ti vou me firmar
             F#/A#
Então confiarei em ti
   Am              B            C
E na promessa que fez a mim, a mim

[Refrão]

F                        C/E
  Eu olharei para o alto
Dm                     F#º
   De onde vem socorro
Gm
   E é firme na rocha
Bbm
    Que eu terei vitória
F                    Em7(5-)  A7(13-)
  Eu olharei para o céu
Dm    G7          Cm7  F7
   De onde vem a ben__ção
Bb               F/A
   Terei o testemunho
Gm                Bb/F        C7(9/13)  C
   E contarei ao mundo que tu és meu Deus

[Final] F  Dm  G/B  Bbm  F

[Solo Final]

Parte 1 De 2

E|-6/8-8-6-6-5-5--------8-6-6-5-5----------------|
B|----------------6-8-6--------------------------|
G|-----------------------------------------------|
D|-----------------------------------------------|
A|-----------------------------------------------|
E|-----------------------------------------------|

Parte 2 De 2

E|-------10--------9-8-6-------------------------|
B|-6-8-6----10-8-6--------6----------------------|
G|--------------------------6-5~~----------------|
D|-----------------------------------------------|
A|-----------------------------------------------|
E|-----------------------------------------------|
Composição de Gabriela Gomes
207.123 exibições
    • ½ Tom
    • A
    • Bb
    • B
    • C
    • Db
    • D
    • Eb
    • E
    • F
    • F#
    • G
    • Ab
  • Adicionar à lista

    0 comentários

    Ver todos os comentários
    00:00 / 00:00
    Outros vídeos desta música
    Repetir Qualidade Automático
    Outros vídeos desta música
    00:00 / 00:00
    Automático

    Cifra Club Pro

    Aproveite o Cifra Club com benefícios exclusivos e sem anúncios
    Cifra Club Pro
    Aproveite o Cifra Club com benefícios exclusivos e sem anúncios
    OK