Cifra Club

Incantations Part 4 Solo

Mike Oldfield

Cifra: Principal (violão e guitarra)
tom: C

TRANSCRIBED By: David Chaves(Costa Rica)
                (*)
                (http://*)
-----------------------------------------------------------------

Tablature Notation:

h    = hammer-on
p    = pull-off
/    = slide up
\    = slide down
< >  = natural harmonic
ar   = artificial harmonic
~    = vibrato
pm--|= palm muting
b    = bending
r    = release

Questions, comments, complaints at *

"Incantations"   (14:44-15:05 and 16:28-16:53)

"The Complete" \
"Elements"      |(02:26-02:47 and 04:09-04:36)
"The Essential"/

The second time it goes slower.


e|----------7-7------------------------10-10-12-10-9-----------|
B|------8-8-----8-8h10p8p7---7-7/10-10---------------12-10-12--|
G|-/9-9--------------------9-----------------------------------|
D|-------------------------------------------------------------|
A|-------------------------------------------------------------|
E|-------------------------------------------------------------|

e|--------------------------------------------------------|
B|-------12-12----------------------------13h15-13--------|
G|-11-11-------11-11h12p11----------12-12----------12-12--|
D|-------------------------14-12-14-----------------------|
A|--------------------------------------------------------|
E|--------------------------------------------------------|

e|--------------------------------------|
B|-------------13-13--------------------|
G|-------12-12-------12--12-10-9--------|
D|-14-14-------------------------12-10--|
A|--------------------------------------|
E|--------------------------------------|

e|---------------------------------------------------------------------------------------|
B|---------------------------------------------------------------------------------------|
G|-9-9/14-14-17-17-16-16-14-14-12-12h14p12-----------------------------------------------|
D|-----------------------------------------16-16\14-14-14/16-16-16/17-17-17/19-21-21\19--|
A|---------------------------------------------------------------------------------------|
E|---------------------------------------------------------------------------------------|

Gracias Calilo.
Compositor não encontrado.
290 exibições
    • ½ Tom
    • A
    • Bb
    • B
    • C
    • Db
    • D
    • Eb
    • E
    • F
    • F#
    • G
    • Ab
  • Adicionar à lista

    0 comentários

    Ver todos os comentários

    Conseguiu tocar?

    0 Tocaram 0 Ainda não

    Grave um vídeo tocando Incantations Part 4 Solo e nos envie!

    00:00 / 00:00
    Outros vídeos desta música
    Repetir Qualidade Automático
    Outros vídeos desta música
    00:00 / 00:00
    Automático

    Cifra Club Pro

    Aproveite o Cifra Club com benefícios exclusivos e sem anúncios
    Cifra Club Pro
    Aproveite o Cifra Club com benefícios exclusivos e sem anúncios
    OK