Cifra Club

When I Look At You

Miley Cyrus

Cifra: Principal
exibições 431.658
Tom: F# (com acordes na forma de F) Capotraste na 1ª casa
Intro: Dm  F  C  Bb

E|-----7----6----6-----------------|
B|7--7---7-----7---7--9--6--7------|
G|-----------------------------8---|
D|---------------------------------|
A|---------------------------------|
E|---------------------------------|

E|-----7----6----6------------------|
B|7--7---7-----7---7--9--6--7-------|
G|-----------------------------0----|
D|----------------------------------|
A|----------------------------------|
E|----------------------------------|

 Dm          F
Everybody needs inspiration
  C            Bb
Everybody needs a song
 Dm         F      C         Bb
A beautiful melody, when the nights so long

  Am              Bb
Cause there is no guarantee
  F              C
That this life is easy (Yeah)

Refrão:
 F           C
When my world is falling apart,
             Dm              Bb
when there is no light to break up the dark
            F   C   Dm      Bb
That's when I (I) I look at you

          F         C
When the waves are flooding the shore and I
  Dm                 Bb
can't find my way home anymore
           F  C   Dm    Bb
That's when I (I) I look at you

When I look at you

Dm           F      C        Bb
I see forgiveness, I see the truth
 Dm               F      C
You love me for who I am like the stars
  Bb
hold the moon
 Am                 Bb           F
Right there where they belong and I know
    C
I'm not alone (Yeah)

Refrão:
 F           C
When my world is falling apart,
             Dm              Bb
when there is no light to break up the dark
            F   C   Dm      Bb
That's when I (I) I look at you

          F         C
When the waves are flooding the shore and I
  Dm                 Bb
can't find my way home anymore
           F  C   Dm    Bb
That's when I (I) I look at you

When I look at you

Am    Bb    C          Dm
You appear just like a dream to me
   Am     Bb      C           Dm
Just like a Kaleydoscope colors that cover me
Am          C           Dm
All I need every breath that I breathe
Am       Bb    C
Don't you know you're beautiful

Solo:
E|---------------------------11-11------------------11~--9\7-6~-----------|
B|---------2h4-4-4p2~-----9b-------9br-7-9p7---7~-------------------------|
G|------3------------------------------------8----------------------------|
D|--4~--------------------------------------------------------------------|
A|------------------------------------------------------------------------|
E|------------------------------------------------------------------------|

F    C   Dm Bb
          Yeah, Yeah

         F         C
When the waves are flooding the shore and I
  Dm                 Bb
can't find my way home anymore
           F  C   Dm    Bb
That's when I (I) I look at you
Am   Bb     C          Bb
You appear just like a dream to me.

0 comentários

    mostrar mais comentários

    Conseguiu tocar?

    80tocaram1ainda não

    Grave um vídeo tocando When I Look At You e mande pra gente!

    00:00 / 00:00
    outros vídeos desta música
    repetirqualidadeautomática
    Outro vídeos desta música
      00:00 / 00:00
      automática
      OK