Cifra Club

Boring Planet

Millencolin

Cifra: Principal (violão e guitarra)
tom: A
INTRO:

GUITAR1:

E |---------------------------------------------------------------
B |---------------------------------------------------10-10-------
G |--11----11--9--7h9--11----11--9--7h9--11----11--9---------9----
D |---------------------------------------------------------------
A |---------------------------------------------------------------
E |---------------------------------------------------------------

E |--------------------
B |--------------------
G |--11--9--7h9--11----
D |--------------------
A |--------------------
E |-------------------- (x3)

E |-----------------------------------------------------
B |---------10-10-------------------------10-*-10-10----
G |--11--9---------9----11--9--7--9--6------------------
D |-----------------------------------------------------
A |-----------------------------------------------------
E |-----------------------------------------------------

GUITAR2: D, G, B, A (x2) A

VERSE:   D, F#, G (x3) A
         (Repeat)

CHORUS: (Same as the intro:)

RIFF1:   D-G-B-A (x2) G

VERSE:

CHORUS:

BRIDGE:

GUITAR1:

E |----------
B |----------
G |--11/7----
D |----------
A |----------
E |----------

(Repeat the riff above during the whole bridge:)

GUITAR2: D-G-B-A (x8)

CHORUS:  (Repeat with some variations in the guitar-melody:)

         (End up with "D")
00:00 / 00:00
Outros vídeos desta música
Repetir
Outros vídeos desta música
Composição de Nikola Sarcevic
3.938 exibições
    • ½ Tom
    • A
    • Bb
    • B
    • C
    • Db
    • D
    • Eb
    • E
    • F
    • F#
    • G
    • Ab
  • Adicionar à lista

    0 comentários

    Ver todos os comentários

    Conseguiu tocar?

    0 Tocaram 0 Ainda não

    Grave um vídeo tocando Boring Planet e nos envie!

    Entre para oCifra Club PRO

    Tenha acesso a benefícios exclusivos no App e no Site

    • Chega de anúncios

    • Prioridade de compra em lançamentos

    • Mais recursos no app do Afinador

    • Atendimento Prioritário

    • Descontos nos produtos Cifra Club

    • Ajude a produzir mais conteúdo

    00:00 / 00:00

    Cifra Club Pro

    Aproveite o Cifra Club com benefícios exclusivos e sem anúncios
    Cifra Club Pro
    Aproveite o Cifra Club com benefícios exclusivos e sem anúncios
    OK