Cifra Club

Hellman

Millencolin

Cifra: Principal (violão e guitarra)
tom: C
VERSE:
Palm Muted

e|--------------------------------------------------------------------|
b|--------------------------------------------------------------------|
g|-7-7-7-7-7-7-7-7----------------------------------------------------|
d|-7-7-7-7-7-7-7-7--8-8-8-8-8-8-8-8--3-3-3-3-3-3-3-3-3-3-3-3-3-3-3-3--|
a|-5-5-5-5-5-5-5-5--8-8-8-8-8-8-8-8--3-3-3-3-3-3-3-3-3-3-3-3-3-3-3-3--|
E|------------------6-6-6-6-6-6-6-6--1-1-1-1-1-1-1-1-1-1-1-1-1-1-1-1--|

PRE CHORUS:

e|--------------------------------------------------------------------|
b|--------------------------------------------------------------------|
g|--------------------------------------------------------------------|
d|-5--5--5--5---------------------------------------------------------|
a|-5--5--5--5---------------------------------------------------------|
E|-3--3--3--3---------------------------------------------------------|

CHORUS:

e|--------------------------------------------------------------------|
b|--------------------------------------------------------------------|
g|-7-7-7-7--9-9-9-9--14-14-14-14--10-10-10-10---------10-12-----------|
d|--------------------------------------------------------------------|
a|-5-5-5-5--7-7-7-7--12-12-12-12---8--8--8--8----------8-10-----------|
E|--------------------------------------------------------------------|

BRIDGE:
Guitar One

e|--------------------------------------------------------------------|
b|--------------------------------------------------------------------|
g|--10--10--10--10--10--10--------------------------------------------|
d|------------------------------REPEAT--------------------------------|
a|----8---8---8---8---8---8-------------------------------------------|
E|--------------------------------------------------------------------|

Guitar Two:
Palm Mute

e|--------------------------------------------------------------------|
b|--------------------------------------------------------------------|
g|-7-7-7-7-7-7-7-7--5-5-5-5-5-5-5-5--3-3-3-3-3-3-3-3-3-3-3-3-3-3-3-3--|
d|-7-7-7-7-7-7-7-7--5-5-5-5-5-5-5-5--3-3-3-3-3-3-3-3-3-3-3-3-3-3-3-3--|
a|-5-5-5-5-5-5-5-5--3-3-3-3-3-3-3-3--1-1-1-1-1-1-1-1-1-1-1-1-1-1-1-1--|
E|--------------------------------------------------------------------|

Song Structure:
Verse (x5)
Pre Chorus (x1)
Chorus (x4)
Verse (x5)
Pre Chorus (x1)
Chorus (x4)
Bridge (x1)
Pre Chorus (x2)
Chorus (x5)
Compositor não encontrado.
8.102 exibições
    • ½ Tom
    • A
    • Bb
    • B
    • C
    • Db
    • D
    • Eb
    • E
    • F
    • F#
    • G
    • Ab
  • Adicionar à lista

    0 comentários

    Ver todos os comentários

    Conseguiu tocar?

    0 Tocaram 0 Ainda não

    Grave um vídeo tocando Hellman e nos envie!

    00:00 / 00:00
    Outros vídeos desta música
    Repetir Qualidade Automático
    Outros vídeos desta música
    00:00 / 00:00
    Automático

    Cifra Club Pro

    Aproveite o Cifra Club com benefícios exclusivos e sem anúncios
    Cifra Club Pro
    Aproveite o Cifra Club com benefícios exclusivos e sem anúncios
    OK