Cifra Club

Israelitites

Millencolin

Cifra: Principal (violão e guitarra)
tom: B
INTRO:
e|-7-----7-----4-----6-----7----------------------|
B|-7-----7-----5-----7-----7----------------------|
G|-8-----8-----4-----6-----8----------------------|
D|-9-----9-----6-----8-----9------5-5-5-5--7-7-7-7|
A|--------------------------------5-5-5-5--7-7-7-7|
E|--------------------------------3-3-3-3--5-5-5-5|

verse:(low tempo)
e|-7-7-7-7-7-7-7-7-4-4-6-6-7-7----------------|
B|-7-7-7-7-7-7-7-7-5-5-7-7-7-7----------------|
G|-8-8-8-8-8-8-8-8-4-4-6-6-8-8----------------|
D|-9-9-9-9-9-9-9-9-6-6-8-8-9-9-5-5-5-5-7-7-7-7|
A|-----------------------------5-5-5-5-7-7-7-7|
E|-----------------------------3-3-3-3-5-5-5-5|

e|-7-7-7-7-7-7-7-7-4-4-6-6-7-7-7-7-4-4-6-6-7-7-7-7-4-4-6-6-7-7|
B|-7-7-7-7-7-7-7-7-5-5-7-7-7-7-7-7-5-5-7-7-7-7-7-7-5-5-7-7-7-7|
G|-8-8-8-8-8-8-8-8-4-4-6-6-8-8-8-8-4-4-6-6-8-8-8-8-4-4-6-6-8-8|
D|-9-9-9-9-9-9-9-9-6-6-8-8-9-9-9-9-6-6-8-8-9-9-9-9-6-6-8-8-9-9|
A|------------------------------------------------------------|
E|------------------------------------------------------------|

solo:
e|-----------------------------------------------|
B|-----------------------------------------------|
G|-----------------------7-9---------------------|
D|----------------7-9-11-------------8-8-8-8-8-8-|
A|---9-6---7-9-11--------------9-6---9-9-9-9-9-9-|
E|-7-----7-------------------7-----7-------------|

B|-----------------------------------------------|
G|-----------------------7-9---------------------|
D|----------------7-9-11-------------8-8-8-8-8-8-|
A|---9-6---7-9-11--------------9-6---9-9-9-9-9-9-|
E|-7-----7-------------------7-----7-------------|

verse:(hi tempo)
e|-7-7-7-7-7-7-7-7-4-4-6-6-7-7-7-7-10-10-|
B|-7-7-7-7-7-7-7-7-5-5-7-7-7-7-7-7-10-10-|
G|-8-8-8-8-8-8-8-8-4-4-6-6-8-8-8-8-11-11-|
D|-9-9-9-9-9-9-9-9-6-6-8-8-9-9-9-9-12-12-|
A|---------------------------------------|
E|---------------------------------------|

e|-7-7-7-7-7-7-7-7-4-4-6-6-7-7-7-7-4-4-6-6-7-7-7-7-4-4-6-6-7-7-7-7-4-4-6-6-7-7-10-10|
B|-7-7-7-7-7-7-7-7-5-5-7-7-7-7-7-7-5-5-7-7-7-7-7-7-5-5-7-7-7-7-7-7-5-5-7-7-7-7-10-10|
G|-8-8-8-8-8-8-8-8-4-4-6-6-8-8-8-8-4-4-6-6-8-8-8-8-4-4-6-6-8-8-8-8-4-4-6-6-8-8-11-11|
D|-9-9-9-9-9-9-9-9-6-6-8-8-9-9-9-9-6-6-8-8-9-9-9-9-6-6-8-8-9-9-9-9-4-4-6-6-9-9-12-12|
A|----------------------------------------------------------------------------------|
E|----------------------------------------------------------------------------------|

solo:
e|-------------------------------------------------------|
B|-------------------------------------------------------|
G|-----------------------7-9-----------------------------|
D|----------------7-9-11--------------11-11-9-9-8-8------|
A|---9-6---7-9-11--------------9-6------------------11-11|
E|-7-----7-------------------7-----7---------------------|

e|-------------------------------------------------------|
B|-------------------------------------------------------|
G|-----------------------7-9-----------------------------|
D|----------------7-9-11--------------11-11-9-9-8-8------|
A|---9-6---7-9-11--------------9-6------------------11-11|
E|-7-----7-------------------7-----7---------------------|

end:
e|-4-4-6-6-7-7-7-7|
B|-5-5-7-7-7-7-7-7|
G|-4-4-6-6-8-8-8-8|
D|-6-6-8-8-9-9-9-9|
A|----------------|
E|----------------|
00:00 / 00:00
Outros vídeos desta música
Repetir
Outros vídeos desta música
Compositor não encontrado.
2.048 exibições
    • ½ Tom
    • A
    • Bb
    • B
    • C
    • Db
    • D
    • Eb
    • E
    • F
    • F#
    • G
    • Ab
  • Adicionar à lista

    0 comentários

    Ver todos os comentários

    Conseguiu tocar?

    0 Tocaram 0 Ainda não

    Grave um vídeo tocando Israelitites e nos envie!

    Entre para oCifra Club PRO

    Tenha acesso a benefícios exclusivos no App e no Site

    • Chega de anúncios

    • Prioridade de compra em lançamentos

    • Mais recursos no app do Afinador

    • Atendimento Prioritário

    • Descontos nos produtos Cifra Club

    • Ajude a produzir mais conteúdo

    00:00 / 00:00

    Cifra Club Pro

    Aproveite o Cifra Club com benefícios exclusivos e sem anúncios
    Cifra Club Pro
    Aproveite o Cifra Club com benefícios exclusivos e sem anúncios
    OK