Cifra Club

Knowledge

Millencolin

Cifra: Principal (violão e guitarra)
tom: F
CHORDS:
e-------------
B-------------
G-5--5--3-----
D-5--5--3--3--
A-3--3--1--3--
E----------1--

The riff played goes like this:
e-----------------------------------------
B--6-5-3---------6-5-3---------4-4-4------
G--------5-5-5-5-------5-5-5-5-------3----
D--------------------------------------3--
A-----------------------------------------
E-----------------------------------------
00:00 / 00:00
Outros vídeos desta música
Repetir
Outros vídeos desta música
Composição de David Mello / Jesse Michaels / Lint / Matt McCall
2.103 exibições
    • ½ Tom
    • A
    • Bb
    • B
    • C
    • Db
    • D
    • Eb
    • E
    • F
    • F#
    • G
    • Ab
  • Adicionar à lista

    0 comentários

    Ver todos os comentários

    Conseguiu tocar?

    0 Tocaram 0 Ainda não

    Grave um vídeo tocando Knowledge e nos envie!

    Entre para oCifra Club PRO

    Tenha acesso a benefícios exclusivos no App e no Site

    • Chega de anúncios

    • Prioridade de compra em lançamentos

    • Mais recursos no app do Afinador

    • Atendimento Prioritário

    • Descontos nos produtos Cifra Club

    • Ajude a produzir mais conteúdo

    00:00 / 00:00

    Cifra Club Pro

    Aproveite o Cifra Club com benefícios exclusivos e sem anúncios
    Cifra Club Pro
    Aproveite o Cifra Club com benefícios exclusivos e sem anúncios
    OK