Cifra Club

Material Boy

Millencolin

Cifra: Principal (violão e guitarra)
tom: D
Pm=palm mute
h=hammer on  
/=slide
~=vibrato
b=bend

  Intro                                
G          A         D         D        G         D         [Last time play this.........]  

e|---------------------------------------------------------------------------|
B|---------------------------------------------------------------------------|
G|-----7-7---------------7-7-7------------------------------7-7-7------------|
D|-----7-7------5-5------7-7-7---------5-5-5-----7-7-7------7-7-7------------|  A|-----5-5------5-5------5-5-5---------5-5-5-----7-7-7------5-5-5------------|
E|--------------3-3--------------------3-3-3-----5-5-5-----------------------|  

Verse (When you play the verse after the chorus where you would go into the Pre. 
Chorus play the verse again open)  
        D       G         A          G          A          D       G

e|---------------------------------------------------------------------------|
B|---------------------------------------------------------------------------|
G|------7-7-----------------------------------------------7-7----------------|
D|------7-7-----5-5------7-7-7------5-5-5------7-7-7------7-7------5-5-------|
A|------5-5-----5-5------7-7-7------5-5-5------7-7-7------5-5------5-5-------|
E|--------------3-3------5-5-5------3-3-3------5-5-5---------------3-3-------|
      [...........Pm...................................................

Verse  Cont.  
         A        G           A             D   

e|------------------------------------------------------------------|
B|------------------------------------------------------------------|
G|--------------------------------------7-7-7-7-7-------------------|
D|-----7-7-7-----5-5-5------7-7-7-------7-7-7-7-7-------------------|
A|-----7-7-7-----5-5-5------7-7-7-------5-5-5-5-5-------------------|
E|-----5-5-5-----3-3-3------5-5-5-----------------------------------|
      ............................]

Pre. Chorus  (Between the D notes and when you slide into the G theres a pause)
         D       D      G        A                  D         

e|---------------------------------------------------------------------------|
B|---------------------------------------------------------------------------|
G|-----7-7---------------------------------------7-7-7-7-7-------------------|
D|-----7-7-----------5-5-5-----7-7-7-------------7-7-7-7-7-------------------|
A|-----5-5-----------5-5-5-----7-7-7-------------5-5-5-5-5-------------------|
E|--------------10/--3-3-3-----5-5-5-----------------------------------------|

                                            [Last time play this]                   
Chorus  
        B          G          D       A

e|---------------------------------------------------------------------------|
B|---------------------------------------------------------------------------|
G|--------------------------7-7-7--------------------------------------------|
D|----9-9-9------5-5-5------7-7-7-----7-7-7----------------------------------|
A|----9-9-9------5-5-5------5-5-5-----7-7-7----------------------------------|
E|----7-7-7------3-3-3----------------5-5-5----------------------------------|

Solo

e|----------------------------------------------------------------------10-9-|
B|----7b7b-------7 7b7b-------10 10-10h7-10-12b 10-10-10-10h7-10-12b-10------|
G|---------7-4-7-------7-4-7-------------------------------------------------|
D|---------------------------------------------------------------------------|
A|---------------------------------------------------------------------------|
E|---------------------------------------------------------------------------|

(2nd guitar plays chorus chords)

Solo cont.

e|---7-7-7-10-9-7-7-7--------------------------------------------------------|
B|--------------------10-10-10h7-10-12b-10-10~-12-14-15~-15/-----------------|
G|---------------------------------------------------------------------------|
D|---------------------------------------------------------------------------|
A|---------------------------------------------------------------------------|
E|---------------------------------------------------------------------------|

Body:
1.intro 2x         6.Chorus 2x  
2.Verse 1x         7.Solo 1x
3.Pre.chorus 2x    8.Chorus(With different pattern) 4x
4.Chorus 2x        9.Chorus till end
5.Verse 2x         
00:00 / 00:00
Outros vídeos desta música
Repetir
Outros vídeos desta música
Compositor não encontrado.
8.493 exibições
    • ½ Tom
    • A
    • Bb
    • B
    • C
    • Db
    • D
    • Eb
    • E
    • F
    • F#
    • G
    • Ab
  • Adicionar à lista

    0 comentários

    Ver todos os comentários

    Conseguiu tocar?

    0 Tocaram 0 Ainda não

    Grave um vídeo tocando Material Boy e nos envie!

    00:00 / 00:00

    Cifra Club Pro

    Aproveite o Cifra Club com benefícios exclusivos e sem anúncios
    Cifra Club Pro
    Aproveite o Cifra Club com benefícios exclusivos e sem anúncios
    OK