Cifra Club

Aprenda

Olympic

Millencolin

Cifra: Principal (violão e guitarra)
Tom: D
INTRO

Gtr. 1 (abafado)
E|----------------------------------------------------------------
B|----------------------------------------------------------------
G|----------------------------------------------------------------
D|-9-9-9-9-9-9-9-9-5-5-5-5-5-5-5-5-7-7-7-7-7-7-7-7-7-7-7-7-7-7-7-7
A|----------------------------------------------------------------
E|----------------------------------------------------------------

Gtr. 2 (abafado)
E|----------------------------------------------------------------
B|----------------------------------------------------------------
G|-7-7-7-7-7-7-7-7-7-7-7-7-7-7-7-7-6-6-6-6-6-6-6-6-9-9-9-7-7-7-6-6
D|----------------------------------------------------------------
A|----------------------------------------------------------------
E|----------------------------------------------------------------

INTRO 2 (parte rápida)

Gtr. 1 (com wah-wah)
E|-----------------------------------
B|-----------------------------------
G|-7-7-6-7--7-7-6-7--6-4-6--9-9-7-6--
D|-----------------------------------
A|-----------------------------------
E|-----------------------------------

Gtr. 2  
B, G, A.


VERSO 1

B|- G|- A


VERSO 2 (olimpic day...)

Gtr. 1
E|-7-----7-----7-----7--------
B|---7-----7-----7-----7------
G|-----7-----7-----7-----7----
D|----------------------------
A|----------------------------
E|----------------------------
 
Gtr. 2
B|- G|- A|- F#


REFRÃO (Don't like me...)

Gtr 1. (na segunda parte)
E|---------------------------------
B|------------------------8--------
G|-4------6-7--------6-7----9-7-6--
D|---------------------------------
A|---------------------------------
E|---------------------------------

Gtr.2
B|- G|- D|- A

SOLO

PARTE LENTA
Gtr.1 x=abafado
E|----------------------------------------------------------------
B|----------------------------------------------------------------
G|-7-x-x-7-x-x-7-x-7-x-x-7-x-x-7-x-6-x-x-6-x-x-6-x-9-x-x-7-x-x-6-x
D|-9-x-x-9-x-x-9-x-5-x-x-5-x-x-5-x-7-x-x-7-x-x-7-x-7-x-x-7-x-x-7-x
A|----------------------------------------------------------------
E|----------------------------------------------------------------

Gtr.2 h=harmonico
E|-----------7h-----------------7h-----
B|---8---------7h-------8---------7h---
G|-7---7-9-------7h---7---7-9-------7h-
D|---------7------------------7--------
A|-------------------------------------
E|-------------------------------------


PARTE RÁPIDA
Gtr.1
B|- G|- A

Gtr.2
E|------------------------------------7-----
B|---8----------7----7--------8---------7---
G|-7---7-9---9b---9b---9b---7---7-9-------7-
D|---------7------------------------7-------
A|------------------------------------------
E|------------------------------------------

Repete tudo em uma ordem diferente que cabe a você percerber!!!
Não vou fazer o serviço todo!!! 

OUTRO

Gtr.1 
B|- G|- A

Gtr.2
E|---------------------------------------------
B|---8----------7----7--------8--------10b-10b-
G|-7---7-9---9b---9b---9b---7---7-9-9~---------
D|---------7-----------------------------------
A|---------------------------------------------
E|---------------------------------------------

* depois de fazer duas vezes os riffs acima entra uma outra 
guitarra solando, eu acredito q uma terça acima!!!
Fica algo do tipo...

Gtr. 1 (mais alta)
E|---------------------------7-----------
B|---8---------------8---------7---------
G|-7---7-9-6-------7---7-9-6-----7-4-fim-
D|---------------------------------------
A|---------------------------------------
E|---------------------------------------

Gtr.2
E|---7------------------------7-------7-----7-fim-
B|-7---7-9-6----7----7------7---7-9-6---7---------
G|-----------9b---9b---9b-----------------7-------
D|------------------------------------------------
A|------------------------------------------------
E|------------------------------------------------
Composição de Erik / Kristofer / Larzon / Mathias / Nikola
Colaboração e revisão:
  • Alexandre Oliveira
3.542 exibições
    • ½ Tom
    • A
    • Bb
    • B
    • C
    • Db
    • D
    • Eb
    • E
    • F
    • F#
    • G
    • Ab
  • Adicionar à lista

    0 comentários

    Mostrar mais comentários

    Conseguiu tocar?

    0 Tocaram 0 Ainda não

    Grave um vídeo tocando Olympic e mande pra gente!

    00:00 / 00:00
    outros vídeos desta música
    repetir qualidade Automático
    Outros vídeos desta música
    00:00 / 00:00
    Automático

    Cifra Club Pro

    Aproveite o Cifra Club com benefícios exclusivos e sem anúncios
    7 dias grátis
    Cifra Club Pro
    Aproveite o Cifra Club com benefícios exclusivos e sem anúncios
    7 dias grátis
    OK