Cifra Club

Stop To Think

Millencolin

Cifra: Principal (violão e guitarra)
tom: F#
Introdução(guitarra 1)
e|---------------------------------------------------------------|
B|---------------------------------------------------------------|
G|---8-8-8-8----------------------------8-x-6-x----8/6\8--10-11--|
D|---8-8-8-8-8-8-8-8-8-9-9-9-9-9-9-9----8-x-6-x-4--8/6\8--10-11--|
A|---6-6-6-6-8-8-8-8-8-9-9-9-9-9-9-9----6-x-4-x-4--6/4\6--8--9---|
E|-----------6-6-6-6-6-7-7-7-7-7-7-7------------2----------------|

e|---------------------------|
B|---------------------------|
G|--8-x-6-x----8/6\8--10-11--|
D|--8-x-6-x-4--8/6\8--10-11--|
A|--6-x-4-x-4--6/4\6--8--9---|
E|----------2----------------|

Verso (guitarra 2)
e|---------------------------------------|
B|---------------------------------------|
G|---8-8-8-8-----------------------------|
D|---8-8-8-8-8-8-8-8-8-9-9-9-9-9-9-9-----|
A|---6-6-6-6-8-8-8-8-8-9-9-9-9-9-9-9-----|
E|-----------6-6-6-6-6-7-7-7-7-7-7-7-----|
     |------------------------------|
                  P.M.

Pre-refrão (guitarra 1)             | (guitarra 2)
e|----------------------------------|----------------------------------------|
B|----------------------------------|----------------------------------------|
G|---11-11-11-11-11-11-11-11-11-11--|---11-11-11-11-11-11-11-11-11-11-11-11--|
D|---11-11-11-11-11-11-11-11-11-11--|---11-11-11-11-11-11-11-11-11-11-11-11--|
A|---9--9--9--9--9--9--9--9--9--9---|---9--11-9--11-9--11-9--11-9--11-9--11--|
E|----------------------------------|----------------------------------------|
     .............................  |   ...................................
                 P.M.                                 P.M.

 refrão (guitarras 1 e 2)                     
e|---------------------------------------------------------------------------|
B|---------------------------------------------------------------------------|
G|------------6-6-6-6--8-8-8-8-8-8-8-8-----------6-6-6-6-6-6-6-6-6-6---------|
D|---4-4-4-4--6-6-6-6--8-8-8-8-8-8-8-8--3x-then--6-6-6-6-6-6-6-6-6-6----stop-|
A|---4-4-4-4--4-4-4-4--6-6-6-6-6-6-6-6-----------4-4-4-4-4-4-4-4-4-4---------|
E|---2-2-2-2-----------------------------------------------------------------|
                                           
Solo (guitarra 1)
e|---------------------------------------------------------------------------|
B|---------------------------------------------------------------------------|
G|-11-11-11-11-11-11-11-11-11-11-11-11-11-11------------11-11-11-11-11-11----|
D|-11-11-11-11-11-11-11-11-11-11-11-11-11-11------------11-11-11-11-11-11----|
A|--9--9--9--9--9--9--9--9--9--9--9--9--9--9-13-12-11-9--9--9--9--9--9--9----|
E|---------------------------------------------------------------------------|
   |---------------------------------------------------------------------|
                                 P.M.

base do Solo (guitarra 2)
e|-------------------------------------------------|
B|-------------------------------------------------|
G|---8--8/6--6/4--4\6------8--8/6--6\11-11\13------|
D|---8--8/6--6/4--4\6--4---8--8/6--6\11-11\13--4---|
A|---6--6/4--4/2--2\4--4---6--6/4--4\-9--9\11--4---|
E|---------------------2-----------------------2---|

final (guitarra 1)
e|-----------------------------------------------------------------|
B|-----------------------------------------------------------------|
G|11-11-11-11-11-11-11-11-11-11-11-11-11-11-11-11-11-11-11-11-11---|
D|11-11-11-11-11-11-11-11-11-11-11-11-11-11-11-11-11-11-11-11-11---|
A|-9--9--9--9--9--9--9--9--9--9--9--9--9--9--9--9--9--9--9--9--9---|
E|-----------------------------------------------------------------|
     ......               ......               .......
      P.M.                 P.M.                 P.M.

final (guitarra 2)
e|-------------------------------------------------------------------|
B|-------------------------------------------------------------------|
G|--8-8-8-8-8-8-8-8-6-6-6-6-6-6-6-6-4-4-4-4-4-4-4-4-4----------------|
D|--8-8-8-8-8-8-8-8-6-6-6-6-6-6-6-6-4-4-4-4-4-4-4-4-4-4-4-4-4-4-4-4--|
A|--6-6-6-6-6-6-6-6-4-4-4-4-4-4-4-4-2-2-2-2-2-2-2-2-4-4-4-4-4-4-4-4--|
E|--------------------------------------------------2-2-2-2-2-2-2-2--|
      ....            ....            ....            ....
        P.M.            P.M.            P.M.            P.M.

 Essa eh uma musika pouco conhecida deles,mais na minha opnião eh uma das melhores...

 Essa vai em homenagem a um grande amigo q acaba de nos deixar...LG essa eh pra vc...
00:00 / 00:00
Outros vídeos desta música
Repetir
Outros vídeos desta música
Composição de Millencolin
Colaboração e revisão:
  • raphael gregorio
2.374 exibições
    • ½ Tom
    • A
    • Bb
    • B
    • C
    • Db
    • D
    • Eb
    • E
    • F
    • F#
    • G
    • Ab
  • Adicionar à lista

    0 comentários

    Ver todos os comentários

    Conseguiu tocar?

    0 Tocaram 0 Ainda não

    Grave um vídeo tocando Stop To Think e nos envie!

    Entre para oCifra Club PRO

    Tenha acesso a benefícios exclusivos no App e no Site

    • Chega de anúncios

    • Prioridade de compra em lançamentos

    • Mais recursos no app do Afinador

    • Atendimento Prioritário

    • Descontos nos produtos Cifra Club

    • Ajude a produzir mais conteúdo

    00:00 / 00:00

    Cifra Club Pro

    Aproveite o Cifra Club com benefícios exclusivos e sem anúncios
    Cifra Club Pro
    Aproveite o Cifra Club com benefícios exclusivos e sem anúncios
    OK