Cifra Club

Use your nose

Millencolin

Cifra: Principal (violão e guitarra)
tom: Db
-ntro:
O baixo começa tocando ai depois a guitarra toca isso abafado:
e|----------------------------|
B|----------------------------|
G|----------------------------|
D|-33333333---55555-----------|
A|-33333333---55555-----------|
E|-11111111---33333-----------|
P.M.....................

Verso:
em ritimo ska!

e|-5-5-5-5-5---3-3---5-5---5-5-5-5-5---3--5---|
B|-7-7-7-7-7---3-3---5-5---7-7-7-7-7---3--5---|
G|-7-7-7-7-7---4-4---6-6---7-7-7-7-7---4--6---|
D|-7-7-7-7-7---5-5---7-7---7-7-7-7-7---5--7---|
A|--------------------------------------------|
E|--------------------------------------------|

Ponte:
e|--------------------------------------------|
B|--------------------------------------------|
G|-------------------33333333--55555----------|
D|-33333333--55555---33333333--55555----------|
A|-33333333--55555---11111111--33333----------|
E|-11111111--33333----------------------------|
P.M.....................................

Refrão:
e|-----------------------------------------|
B|-----------------------------------------|
G|-------------------33333333--55555-------|
D|-33333333--55555---33333333--55555-------|
A|-33333333--55555---11111111--33333-------|
E|-11111111--33333-------------------------|

Depois volta pro verso e toca de novo and say YEAH!
00:00 / 00:00
Outros vídeos desta música
Repetir
Outros vídeos desta música
Compositor não encontrado.
Colaboração e revisão:
  • Marco Aurélio
1.024 exibições
    • ½ Tom
    • A
    • Bb
    • B
    • C
    • Db
    • D
    • Eb
    • E
    • F
    • F#
    • G
    • Ab
  • Adicionar à lista

    0 comentários

    Ver todos os comentários

    Conseguiu tocar?

    0 Tocaram 0 Ainda não

    Grave um vídeo tocando Use your nose e nos envie!

    Entre para oCifra Club PRO

    Tenha acesso a benefícios exclusivos no App e no Site

    • Chega de anúncios

    • Prioridade de compra em lançamentos

    • Mais recursos no app do Afinador

    • Atendimento Prioritário

    • Descontos nos produtos Cifra Club

    • Ajude a produzir mais conteúdo

    00:00 / 00:00

    Cifra Club Pro

    Aproveite o Cifra Club com benefícios exclusivos e sem anúncios
    Cifra Club Pro
    Aproveite o Cifra Club com benefícios exclusivos e sem anúncios
    OK