Cifra Club

Vulcan Ears

Millencolin

Cifra: Principal (violão e guitarra)
tom: A
Riff 1 Pausado :

E |--------------------------------------------------------------------------------------------|
B |--------------------------------------------------------------------------------------------|
G |-----------------------9--9--9--9--9-x-----11--11--11--11--11-x---7--7--7--7--7-x-----------|
D |---7--7--7--7--7-x-----9--9--9--9--9-x-----11--11--11--11--11-x---7--7--7--7--7-x-----------|
A |---7--7--7--7--7-x-----7--7--7--7--7-x------9---9---9---9---9-x---5--5--5--5--5-x-----------|
E |---5--5--5--5--5-x--------------------------------------------------------------------------|

In a tiny spaceship,
With four legs a pillow and some sheets, 
That's where my idols always meet,
I'd like to be there now

====Batidas De Ska (pra cima), rapidinhas :=======

      A        E     F#        D
 
E |-----------------------------------------------|
B |---10--10--------------------------------------|
G |----9---9---9--9--11--11----7--7---------------|
D |----7---7---9--9--11--11----7--7---------------|
A |------------7--7---9---9----5--5---------------|
E |-----------------------------------------------|

I'm trying trying every night 
To see a UFO
But in case I don't, just in case I won't

     A        E     F#        D    E
 
E |------------------------------------------------|
B |---10--10---------------------------------------|
G |----9---9---9--9--11--11----7x--9--9--9--9------|
D |----7---7---9--9--11--11----7x--9--9--9--7------|
A |------------7--7---9---9----5x--7--7--7--7------|
E |------------------------------------------------|

    I've got my fantasy to lean on


Refrão :

|(Batida reagge)         |  (Batida Ska)               |
|D       E               |F#                           |
|vulcan eyebrows, vulcan |ears, that's what I dream of,| 

D       E               (F#) Riff2
no more sorrow, no more tears, can't you get me beamed up?

                        RIFF 2:
                        A |-----9---9-9-9--7----------------------|
                        E |--------------------9~~~~~-------------|

D       E              F#     
vulcan logic, vulcan needs, quite bizarre but still a dream

D      E                A - E - F# - D==>ska do verso
as I'm waiting for that beam

Verso 2 :

(A-E-F#-D)
Bullshit is all we talk on
This planet we call earth
Since I'm tired of that I'll take a further step
A       E       F#          D--E-E-E-E
I think I'll find my way in space

Refrão

vulcan eyebrows, vulcan ears, that's what I dream of,
no more sorrow, no more tears, can't you get me beamed up?
vulcan logic, vulcan needs, quite bizarre but still a dream
as I'm waiting for that beam

Repete inicio (riff 1):

In a tiny spaceship,
With four legs a pillow and some sheets, 

                                                                    |Batida de SKA|
E |---------------------------------------------------------------------------------------|
B |---------------------------------------------------------------------------------------|
G |-----------------------9--9--9--9--9-x-----11--11--11--11--11-x---9-9-9-9-9x-----------|
D |---7--7--7--7--7-x-----9--9--9--9--9-x-----11--11--11--11--11-x---9-9-9-9-9x-----------|
A |---7--7--7--7--7-x-----7--7--7--7--7-x------9---9---9---9---9-x---7-7-7-7-7x-----------|
E |---5--5--5--5--5-x---------------------------------------------------------------------|

          That's where my idols always meet             I'd like to be there now

(HARDCORE)

D      E                F#
vulcan eyebrows, vulcan ears, no more sorrow, no more tears
D      E                F#
vulcan eyebrows, vulcan ears
D      E                F#
vulcan logic, vulcan needs, quite bizarre but still a dream
D      E                F#
I'm still waiting for that beam

E |-----------------------------------------------------------------------------------------|
B |-----------------------------------------------------------------------------------------|
G |-----------------------------------------------------------------------------------------|
D |-------7-7-7-6------------------------------7-7-7-6--------------------------------------|
A |----5----------7~~----9--9-9-9-7---------5----------7~~--------9--7----7--9--7----7------|
E |---------------------------------9~~~------------------------9-------9----------9--------|
                                 Let space to destroy           t's for agression ___?______

E |-------------------------------------------------------------|
B |-------------------------------------------------------------|
G |-------------------------------------------------------------|
D |-------7-7-7-6------------------------------7-7-7-6----------|
A |----5----------7~~----9--9-9-9-7---------5----------7~~------|
E |---------------------------------9~~~------------------------|
                                   Surpriiise         Kiss my aaaaaaaass
00:00 / 00:00
Outros vídeos desta música
Repetir
Outros vídeos desta música
Composição de Erik / Larzon / Mathias / Nikola / Nikola Sarcevic
3.452 exibições
    • ½ Tom
    • A
    • Bb
    • B
    • C
    • Db
    • D
    • Eb
    • E
    • F
    • F#
    • G
    • Ab
  • Adicionar à lista

    0 comentários

    Ver todos os comentários

    Conseguiu tocar?

    0 Tocaram 0 Ainda não

    Grave um vídeo tocando Vulcan Ears e nos envie!

    Entre para oCifra Club PRO

    Tenha acesso a benefícios exclusivos no App e no Site

    • Chega de anúncios

    • Prioridade de compra em lançamentos

    • Mais recursos no app do Afinador

    • Atendimento Prioritário

    • Descontos nos produtos Cifra Club

    • Ajude a produzir mais conteúdo

    00:00 / 00:00

    Cifra Club Pro

    Aproveite o Cifra Club com benefícios exclusivos e sem anúncios
    Cifra Club Pro
    Aproveite o Cifra Club com benefícios exclusivos e sem anúncios
    OK