Cifra Club

Aprenda

Morro Velho

Milton Nascimento

Cifra: Principal (violão e guitarra)
tom: E
Introdução:

E|---9-------9---9------9-----|-----10-----10--10-----10-----|--12--12----12--12-----10-----|
B|--10------10--10-----10-----|-----10-----10---9------9-----|--10--10----10---9------9-----|
G|----------------------------|------------------------------|------------------------------|
D|----------------------------|------------------------------|------------------------------|
A|---0------------------------|------------------------------|------------------------------|
E|------0--------0--0------0--|---0-------------0--0------0--|---0-------------0--0------0--|

E|-----9-----9---9------9-----|--10--10----10--10------9-----|---9---7-----7---7------9-----|
B|-----9-----9---9------9-----|---8---8-----8---8------8-----|---7---7-----7---7------7-----|
G|----------------------------|------------------------------|------------------------------|
D|----------------------------|------------------------------|------------------------------|
A|----------------------------|------------------------------|------------------------------|
E|--0------------0--0------0--|---0-------------0--0------0--|---0-------------0--0------0--|

E|--9--9-----9---9------7-----|--7--5-----5---5------5-----||
B|--6--6-----6---6------6-----|--5--5-----5---5------5-----||
G|----------------------------|----------------------------||
D|----------------------------|----------------------------||
A|----------------------------|----------------------------||
E|--0------------0--0------0--|--0------------0--0------0--||



Aadd9             A7(4/9)      A7M(9)                 Am7(9)
No sertão da minha terra, fazenda é o camarada que ao chão se deu
A7M(#11)            Am7(9)     A7(4/9)     A7(b9)          D7M(9)  D6
Fez a obrigação com força, parece até que tudo aquilo ali é seu
D#m7(b5)           G7(9)(#11) Dm7(9) G7(13) A7M(9)         Am7(9)
Só poder sentar no morro........... e ver tudo verdinho, lindo a crescer
A7M(9)       Am7(9)       A/E
Orgulhoso camarada, de viola em vez de enxada


Repete introdução


Aadd9               A7(4/9)       A7M(9)                      Am7(9)
Filho do branco e do preto, correndo pela estrada atrás de passarinho
A7M(#11)          Am7(9)             A7(4/9)     A7(b9)    D7M(9)    D6
Pela plantação adentro, crescendo os dois meninos, sempre pequeninos
D#m7(b5)          G7(9)(#11) Dm7(9) G7(13) A7M(9)           Am7(9)
Peixe bom dá no riacho...... de água tão limpinha, dá pro fundo ver
A7M(9)      Am7(9)              Aadd9
Orgulhoso camarada, conta histórias pra moçada
F#m7(11)   Am7(9)     F#m7(11)   Am7(9) F#m7(11)      Em7(9)     F#m7(11) Em7(9)
Filho do senhor vai embora,       tempo de estudos na cidade grande
F#m7(11)   Am7(9)       F#m7(11)   Am7(9)      F#m7(11)      Em7(9)       F#m7(11)
Parte,     tem os olhos tristes, deixando o companheiro na estação distante
A7M(9)  B/A    G#m7             G  A/G    F#m7  Aadd9  G#m7            G  G(#4)  G5  G6  Bm7  A11
Não......me esqueça, amigo, eu vou voltar,    some longe o trenzinho ao deus.........dará

( G#m7  C#m7(9)  Bm7(9)  E7(11/13) )

Aadd9            A7(4/9)         Aadd9                B/A        C/A
Quando volta já é outro, trouxe até sinhá mocinha para apresentar
A7M(#11)         Am7(11)          A7(4/9)       A7(b9)      D7M(9)  D6
Linda como a luz da lua  que em lugar nenhum rebrilha como lá
D#m7(b5)             G7(9)(#11) Dm7(9) G7(13) A7M(9)       Am7(9)
Já tem nome de doutor,      e agora na fazenda é quem vai mandar
A7M(9)      Am7(9)                   A/E
    E seu velho camarada, já não brinca mais, trabalha


Final:

E|---9-------9---9------9-----|-----10-----10--10-----10-----|--12--12----12--12-----10-----|
B|--10------10--10-----10-----|-----10-----10---9------9-----|--10--10----10---9------9-----|
G|----------------------------|------------------------------|------------------------------|
D|----------------------------|------------------------------|------------------------------|
A|---0------------------------|------------------------------|------------------------------|
E|------0--------0--0------0--|---0-------------0--0------0--|---0-------------0--0------0--|

E|-----9-----9---9------9-----|--10--10----10--10------9-----|---9---7-----7---7------9-----|
B|-----9-----9---9------9-----|---8---8-----8---8------8-----|---7---7-----7---7------7-----|
G|----------------------------|------------------------------|------------------------------|
D|----------------------------|------------------------------|------------------------------|
A|----------------------------|------------------------------|------------------------------|
E|--0------------0--0------0--|---0-------------0--0------0--|---0-------------0--0------0--|

E|--9--9-----9---9------7-----|---7---5-----5---5------7-----|---7---7-----7---7------5-----|
B|--6--6-----6---6------6-----|---5---5-----5---5------5-----|---4---4-----4---4------4-----|
G|----------------------------|------------------------------|------------------------------|
D|----------------------------|------------------------------|------------------------------|
A|----------------------------|------------------------------|------------------------------|
E|--0------------0--0------0--|---0-------------0--0------0--|---0-------------0--0------0--|

E|--5--3-----3---3------5-----|---5--------------------------||
B|--3--3-----3---3------3-----|---5--------------------------||
G|----------------------------|------------------------------||
D|----------------------------|------------------------------||
A|----------------------------|---0--------------------------||
E|--0------------0--0------0--|------------------------------||
Composição de Milton Nascimento
Colaboração e revisão:
40.238 exibições
    • ½ Tom
    • A
    • Bb
    • B
    • C
    • Db
    • D
    • Eb
    • E
    • F
    • F#
    • G
    • Ab
  • Adicionar à lista

    0 comentários

    Ver todos os comentários

    Conseguiu tocar?

    2 Tocaram 2 Ainda não

    Grave um vídeo tocando Morro Velho e nos envie!

    00:00 / 00:00
    Outros vídeos desta música
    Repetir Qualidade Automático
    Outros vídeos desta música
    00:00 / 00:00
    Automático

    Cifra Club Pro

    Aproveite o Cifra Club com benefícios exclusivos e sem anúncios
    Cifra Club Pro
    Aproveite o Cifra Club com benefícios exclusivos e sem anúncios
    OK