Enviar cifraEntrar

Do meu interior

Ministério Além do Véu

Cifra: Principal
exibições 25.976
Tom: A
Intro 4x: D9  A9  E


     D9                 A9          E
E|---------------9------------9----------------------|
B|---------10--------------10--10--12--9-------------|
G|--9h11-----9---------9--------------------9--------|
D|---------------------------------------------------|
A|---------------------------------------------------|
E|---------------------------------------------------|


           D9               A9        E
Se por mil vezes falhei, Tu fostes fiel
           D9                   A9         E
E se outra vez tropeçar, em Tua graça estarei
     F#m7        D9             A9     E
Para sempre, Tua luz eu sei que brilhará
     F#m7        D9          A9   E
Infindável , Tua glória permanecerá    (Intro) 2x

         D9            A9      E
A Tua vontade Senhor, obedecerei
       D9               A9            E
A arte de me perder, ao dar-Te o louvor
     F#m7        D9             A9     E
Para sempre, Tua luz eu sei que brilhará
     F#m7       D9          A9   E
Infindável, Tua glória permanecerá
D9            A9               F#m7
   Do meu coração, controle te dou,
               E            D9
Consome meu interior, Deus
             F#m7                 E
Justiça e louvor, me envolvam Senhor
               Bm
Pra Te amar de coração    (Intro)

      F#m7       D9             A9     E
Para sempre, Tua luz eu sei que brilhará
      F#m7      D9          A9   E
Infindável, Tua glória permanecerá
    A9       D9          E      F#m7
E o meu coração, quer Te dar louvor,
   D9      E           D9       E    D
O meu coração, quer Te dar louvor, ó Deus

Solo: D  A  F#m  E  D  F#m  E  Bm


E|-------------------------------------9--9--9--9--9--9----10-10-10--12-12-12--|
B|--7-7-7-7-7-7--/10--10--10--\5-5-5---10-10-10-10-10-10---10-10-10--10-10-10--|
G|-----------------------------------------------------------------------------|
D|-----------------------------------------------------------------------------|
A|-----------------------------------------------------------------------------|
E|-----------------------------------------------------------------------------|


E|-----------------------------------------------------------------------------|
B|--10-9\7--7-9-----10-7-9--7-9------------------------------------------------|
G|--------------9---------------6-7-6------------------------------------------|
D|------------------------------------9-9--7-6--~~~~---------------------------|
A|-----------------------------------------------------------------------------|
E|-----------------------------------------------------------------------------|


E|--/9--9--9----7-5-----/9--9--9---/9--9--9---/9--9--9------7-5----------------|
B|--/10-10-10---9-7-----/10-10-10--/10-10-10--/10-10-10-----9-7----------------|
G|-----------------------------------------------------------------------------|
D|-----------------------------------------------------------------------------|
A|-----------------------------------------------------------------------------|
E|-----------------------------------------------------------------------------|


E|--12-12-12--12-12-12--12-12-12---------14---14---14--------17~~~~------------|
B|--10-10-10--10-10-10--10-10-10------15---15---15--------17-------------------|
G|-----------------------------------------------------------------------------|
D|-----------------------------------------------------------------------------|
A|-----------------------------------------------------------------------------|
E|-----------------------------------------------------------------------------|
  • 1
  • 2
  • 3
  • 4
  • 5
  • 6
  • 7
  • 8
  • 9
  • 10
  • 11
  • 12
    Acordes para:
      Composição: Joel Houston / Versão: Cia do LouvorColaboração e revisão:
      • Gustavo
      • eliasrodrigo
      • Peterson.hilari

      0 comentários

        mostrar mais comentários

        Conseguiu tocar?

        4tocaram0ainda não

        Grave um vídeo tocando Do meu interior e mande pra gente!

        00:00 / 00:00
        outros vídeos desta música
        repetirqualidadeautomática
        • automática
        Outro vídeos desta música
          00:00 / 00:00
          automática
          • automática
          Acordes para:violão e guitarra
          dificuldadeexibiçõescontribuições
          fecharplay/pause subir/descer velocidade
            acordes
            fechar
            OK
            Feedback