Cifra Club

Aprenda

Tempo

Ministério Impactus!

Cifra: Principal (violão e guitarra)
tom: C
Am C G
Sei que tudo pode acontecer
Mas confesso, eu nunca imaginei que viveria um grande amor
Por muito tempo procurei alguém que pudesse dividir meus sonhos
E entregar meu coração

F G
Mais quando eu te vi ali parada em frente ao mar
Eu tive a certeza que iria ser você

Am C G F
No seu sorriso eu pude encontrar a paz
E nos seus lindos olhos ver que posso te fazer feliz
E se o que eu sinto por você é certo ou errado
Isso só o tempo poderá responder

Repete tudo

  Solo: A C G
E |------------12-12-10-8-7-------10-10-8-7-------------------------------------------
B |-1/10-10-10--------------8-8-8-----------8-7h8-8-8-7h8-8-10-8-7-8-8-8-7h8-8-10-8-7-
G |-----------------------------------------------------------------------------------
D |-----------------------------------------------------------------------------------
A |-----------------------------------------------------------------------------------
E |-----------------------------------------------------------------------------------

E |------------12-12-10-8-7-------10-10-8-7-----------------------------------------------
B |-1/10-10-10--------------8-8-8-----------8-7h8-8-8-7h8-8-10-8-7-8-8-8-7-10-8-7---------
G |-------------------------------------------------------------------------------9-7-----
D |-----------------------------------------------------------------------------------9-7-
A |---------------------------------------------------------------------------------------
E |---------------------------------------------------------------------------------------

F G
Mais quando eu te vi ali parada em frente ao mar
Eu tive a certeza que iria ser você

Am C G F
No seu sorriso eu pude encontrar a paz
E nos seus lindos olhos ver que posso te fazer feliz
E se o que eu sinto por você é certo ou errado
Isso só o tempo poderá responder

Am C G
Composição de Claudinho
Colaboração e revisão:
  • Ariel Rosa
  • Caio Santiago
163 exibições
    • ½ Tom
    • A
    • Bb
    • B
    • C
    • Db
    • D
    • Eb
    • E
    • F
    • F#
    • G
    • Ab
  • Adicionar à lista

    0 comentários

    Ver todos os comentários

    Conseguiu tocar?

    0 Tocaram 0 Ainda não

    Grave um vídeo tocando Tempo e nos envie!

    00:00 / 00:00
    Outros vídeos desta música
    Repetir Qualidade Automático
    Outros vídeos desta música
    00:00 / 00:00
    Automático

    Cifra Club Pro

    Aproveite o Cifra Club com benefícios exclusivos e sem anúncios
    Cifra Club Pro
    Aproveite o Cifra Club com benefícios exclusivos e sem anúncios
    OK