Cifra Club

Aprenda

Come Back

Misfits

Tab de baixo: Principal
The other tab for this song is slightly off and missing a lot of parts. So here is the 
thing. Here are all the parts. Some are tricky to hear. The order is at the bottom!

Main Riff (0:09)
G--------------------|
D--2222222222222222--|
A--------------------|
E--------------------| This is basically the song minus all the fills.

First Fill (0:30)
G--97-----|
D-----97--|
A---------|
E---------|

Second Fill (0:44)
G--999997-----|
D---------97--|
A-------------|
E-------------|

Chorus (0:45ish)
G--------------------|
D----114411--114411--|
A--22------22--------|
E--------------------|

Bridge (1:43)
G-------------------------------------|
D--5555555555555555-2222222222222222--|
A-------------------------------------|
E-------------------------------------|

Third Fill (2:13)
G--777775-----|
D---------75--|
A-------------|
E-------------|

Fourth Fill (2:17)
G--999975----|
D--------75--|
A------------|
E------------|

Fifth Fill (3:20)
G----44-42---|
D--22--2--4--|
A------------|
E------------|

Sixth Fill (3:36)
G------7777--7775--------------------|
D--5555----55----752222222225672567--|
A------------------------------------|
E------------------------------------|

Seventh Fill (4:02)
G---97--97---|
D--2--9---9--|
A------7-----|
E------------|

Start of End and Eighth Fill (4:04)
G----77--77--77-75----44--44--44--44--|
D--55--55--55--5--7-22--22--22--22----|
A-------------------------------------|
E-------------------------------------|

End (4:11)
G----77--77--77--77--44--44--44--44--|
D--55--55--55--55--22--22--22--22----|
A------------------------------------|
E------------------------------------|

Eighth Fill (4:27)
G---75---|
D--5--7--|
A--------|
E--------|

Ninth Fill (4:31)
G---42---|
D--2--4--|
A--------|
E--------|

End Note
G------|
D--5~--|
A------|
E------|

Order: (Listening helps to pick out the fills)
Main Riff
First Fill
Main Riff
Second Fill
Chorus
Main Riff
Chorus
Main Riff
Second Fill
Main Riff
Second Fill
Chorus
Main Riff
Chorus
Bridge 4x
Third Fill
Fourth Fill (Listen for 3rd & 4th fills, they're played during bridge)
Bridge 3x
Main Riff
Second Fill
Chorus
Main Riff
Fifth Fill
Chorus
Bridge 2x
Sixth Fill (during 2nd bridge)
Bridge 3x
Start of End & Eighth Fill
End 2x
Eighth Fill
Ninth Fill
End
Third Fill
End (few times)
End Note


Let me know how it. Pretty sure it's all right. Took me a while to figure out the fills. 
Luck!
Composição de Danzig / Glenn Danzig / Luis Russell
764 exibições

0 comentários

Ver todos os comentários

Conseguiu tocar?

0 Tocaram 0 Ainda não

Grave um vídeo tocando Come Back e nos envie!

00:00 / 00:00
outros vídeos desta música
repetir qualidade Automático
Outros vídeos desta música
00:00 / 00:00
Automático

Cifra Club Pro

Aproveite o Cifra Club com benefícios exclusivos e sem anúncios
Cifra Club Pro
Aproveite o Cifra Club com benefícios exclusivos e sem anúncios
OK