Cifra Club

Itoshii Hito

Miyavi

Cifra: Principal (violão e guitarra)
tom: A
e|-------------------------------- 
B|-------------------------------- 
G|-----7-------9-----6------------ 
D|-----7-------9-----6----7------- 
A|--5-------7-----4-------7------- 
E|---------------------5---------- 

e|-------------------------------- 
B|-------------------------------- 
G|-----7-------9-----6------------ 
D|-----7-------9-----6----7------- 
A|--5-------7-----4-------7------- 
E|---------------------5---------- 

e|-------------------------------- 
B|-------------------------------- 
G|-----7-------9-----10------6---- 
D|-----7-------9-----10------6---- 
A|--5-------7-----8------4-------- 
E|-------------------------------- 

e|-------------------------------- 
B|-------------------------------- 
G|-----7-------6---6---6---------- 
D|-----7-------6---6---6---------- 
A|--5-------4------4---4---------- 
E|-----------------4---4---------- 

e|--------------------------| 
B|--------------------------| 
G|---6------7---------------| x2 
D|---6------7---------------| 
A|---4-x12--5-x12-----------| 
E|--------------------------| 

e|---------------------------| 
B|---------------------------| 
G|--7-----9-----6------------| x2 
D|--7-----9-----6----7-------| 
A|--5-----7-----4----7-------| 
E|-------------------5-------|  

e|---------------------------| 
B|---------------------------| 
G|--7-----9-----10----6------| 
D|--7-----9-----10----6------| 
A|--5-----7-----8-----4------| 
E|---------------------------| 

e|--------------------------- 
B|--------------------------- 
G|--7-----9-----6------------ 
D|--7-----9-----6----7------- 
A|--5-----7-----4----7------- 
E|-------------------5------- 

e|---------------------- 
B|---------------------- 
G|--7---6----6--7-6-7--- 
D|--7---6----6--7-6-7--- 
A|--5---4----4--5-4-5--- 
E|-----------4----------

Composição de Miyavi
Colaboração e revisão:
  • giu ftz
5.539 exibições
    • ½ Tom
    • A
    • Bb
    • B
    • C
    • Db
    • D
    • Eb
    • E
    • F
    • F#
    • G
    • Ab
  • Adicionar à lista

    0 comentários

    Ver todos os comentários

    Conseguiu tocar?

    1 Tocaram 0 Ainda não

    Grave um vídeo tocando Itoshii Hito e nos envie!

    00:00 / 00:00
    Outros vídeos desta música
    Repetir Qualidade Automático
    Outros vídeos desta música
    00:00 / 00:00
    Automático

    Cifra Club Pro

    Aproveite o Cifra Club com benefícios exclusivos e sem anúncios
    Cifra Club Pro
    Aproveite o Cifra Club com benefícios exclusivos e sem anúncios
    OK