Cifra Club

Trastevere

Måneskin

Cifra: Principal (violão e guitarra)
Selo Cifra Club: esta cifra foi revisada para atender aos critérios oficiais da nossa Equipe de Qualidade.
tom: Em
[Primeira Parte]

[Dedilhado – Primeira Parte]

Parte 1 de 4

   Em
E|-------14-----12---------14-----12---|
B|-----0------0----0-----0------0----0-|
G|-------------------------------------|
D|-------------------------------------|
A|-------------------------------------|
E|-0-----------------0-----------------|

Parte 2 de 4

   Bm
E|-------9-----7---------9-----7---|
B|-----0-----0---0-----0-----0---0-|
G|---------------------------------|
D|---------------------------------|
A|---------------------------------|
E|-7---------------7---------------|

Parte 3 de 4

   G
E|--------14-----12----------14-----12---|
B|------0------0----0------0------0----0-|
G|---------------------------------------|
D|---------------------------------------|
A|---------------------------------------|
E|-10-----------------10-----------------|

Parte 4 de 4

   F#
E|-9-------9-------9----9-------9------9----|
B|-11--------11------11-11--------11-----11-|
G|-11---11------11------11---11------11-----|
D|------------------------------------------|
A|------------------------------------------|
E|-9--------------------9-------------------|

Em
  The touch of an angel
                   Bm
The taste of a drug

The look of a stranger
                     G
Who has seen too much
                      Em
Nothing comes for free
                         F#
But you can pay with your heart

If you got one

Em
  Tell me all your questions
                  Bm
All you got to ask

Says, licking his fingers
                       G
And shuffling the cards
                    Em
I'll give you the talent
                    F#
You can give me your life

If you got one

[Refrão]

[Riff – Refrão]

                                Em              F#
E|-------------------------------0---0-0---0-0-0-2---2-2---2-2-2-|
B|-------------------------------0---0-0---0-0-0-2---2-2---2-2-2-|
G|-4--2--4---6---7----6---7-/9---0---0-0---0-0-0-3---3-3---3-3-3-|
D|-----------------------------------2-2---2-2-2-4---4-4---4-4-4-|
A|-----------------------------------2-2---2-2-2-4---4-4---4-4-4-|
E|-------------------------------0---0-0---0-0-0-2---2-2---2-2-2-|
   O-pen up my chest take e-very...  ↓ ↑   ↑ ↓ ↑ ↓   ↓ ↑   ↑ ↓ ↑

G
 I swear to God that from tomorrow
                          Bm
There will be no more pain
                       A
I will cancel your name

From each one of my songs
G
 And I had to wear down to my knees
                      Bm
But to be honest, I never
                 A
Truly gave a shit
                          Em
When you didn't come along
  F#             Bm
Oh, so leave me alone
(Tocar riff)
Open up my chest
          Em            F#
Take еverything I've got, yeah

[Primeira Parte]

Em
  The touch of an angel
                   Bm
The taste of a drug

The look of a stranger
                     G
Who has seen too much
                      Em
Nothing comes for free
                         F#
But you can pay with your heart

If you got one

Em
  Tell me all your questions
                  Bm
All you got to ask

Says, licking his fingers
                       G
And shuffling the cards
                    Em
I'll give you the talent
                    F#
You can give me your life

If you got one

[Refrão]

G
 I swear to God that from tomorrow
                          Bm
There will be no more pain
                       A
I will cancel your name

From each one of my songs
G
 And I had to wear down to my knees
                      Bm
But to be honest, I never
                 A
Truly gave a shit
                          Em
When you didn't come along
  F#             Bm
Oh, so leave me alone
(Tocar riff)
Open up my chest
          Em            F#
Take еverything I've got

[Solo] G  Bm  A  G  Bm  A  Em  F#

Parte 1 de 10

   G
E|-----------------------------------------|
B|--------------10---------------10---12---|
G|-9b10-------------------(10)-------------|
D|-----------------------------------------|
A|-----------------------------------------|
E|-----------------------------------------|

Parte 2 de 10

   G
E|---------------10p9-10p9-12/14p12-14---------|
B|---12p10-12p10-------------------------------|
G|---------------------------------------------|
D|---------------------------------------------|
A|---------------------------------------------|
E|---------------------------------------------|

Parte 3 de 10

   Bm
E|-----------------10p9-10p9-12/14p12-14---14---|
B|-----12p10-12p10------------------------------|
G|----------------------------------------------|
D|----------------------------------------------|
A|----------------------------------------------|
E|----------------------------------------------|

Parte 4 de 10

   A
E|-14---12---10--------10------------------|
B|----------------14--------14---10---12---|
G|-----------------------------------------|
D|-----------------------------------------|
A|-----------------------------------------|
E|-----------------------------------------|

Parte 5 de 10

   G
E|-----------------------------------------|
B|-12~~~~~~~~~~~~12b14-----12b14r12---12---|
G|-----------------------------------------|
D|-----------------------------------------|
A|-----------------------------------------|
E|-----------------------------------------|

Parte 6 de 10

   G
E|-------------------------------------------------|
B|-b(14)r12p10---12---12---b(14)r12p10---12---12---|
G|-------------------------------------------------|
D|-------------------------------------------------|
A|-------------------------------------------------|
E|-------------------------------------------------|

Parte 7 de 10

   Bm
E|---------------------10---12---12---12-12-|
B|-12--/14---14---15------------------------|
G|------------------------------------------|
D|------------------------------------------|
A|------------------------------------------|
E|------------------------------------------|

Parte 8 de 10

   A
E|-12---10---9------------------------|
B|---------------10-------------------|
G|--------------------9---7---6-------|
D|------------------------------------|
A|------------------------------------|
E|------------------------------------|

Parte 9 de 10

   Em
E|----------------------------------------|
B|-12b14----------(14)r12-----------------|
G|----------------------------------------|
D|----------------------------------------|
A|----------------------------------------|
E|----------------------------------------|

Parte 10 de 10

   F#
E|--------------------------------12-------|
B|-12b14----------(14)r12------------------|
G|-----------------------------------------|
D|-----------------------------------------|
A|-----------------------------------------|
E|-----------------------------------------|

[Final]

            Bm
So leave me alone
(Tocar riff)
Open up my chest
          Em           F#
Take everything I've got
Outros vídeos desta música
    5.010 exibições
    • Simplificar cifra
      • ½ Tom
      • Am
      • Bbm
      • Bm
      • Cm
      • C#m
      • Dm
      • Ebm
      • Em
      • Fm
      • F#m
      • Gm
      • G#m
    • Adicionar à lista

    Afinação da cifra

    Afinador online

      0 comentários

      Ver todos os comentários

      Conseguiu tocar?

      4Tocaram0Ainda não

      Grave um vídeo tocando Trastevere e nos envie!

      Toque também

      1. Imagem do artista Barbara PraviVoilà Barbara Pravi
      2. Imagem do artista MadconDon't Worry Madcon
      3. Imagem do artista FedezLa Dolce Vita Fedez
      4. Imagem do artista Blind ChannelBalboa Blind Channel

      Entre para o Cifra Club PRO

      Tenha acesso a benefícios exclusivos no App e no Site

      • Chega de anúncios

      • Badges exclusivas

      • Mais recursos no app do Afinador

      • Atendimento Prioritário

      • Aumente seu limite de lista

      • Ajude a produzir mais conteúdo

      Cifra Club Pro

      Aproveite o Cifra Club com benefícios exclusivos e sem anúncios
      Cifra Club Pro
      Aproveite o Cifra Club com benefícios exclusivos e sem anúncios
      Ops (: Contenido disponible sólo en portugués.
      OK