Cifra Club

Montreal Calling

Mobile

Tab de baixo: Principal
Selo Cifra Club: esta cifra foi revisada para atender aos critérios oficiais da nossa Equipe de Qualidade.
Bass Tab
Tuning: Standard (G D A E)

Tabbed by: Peeex

Intro

   1 & 2 & 3 & 4 &
G|------------------| x2
D|------------------|
A|------------------|
E|-4-4-4-4-4-4-4-4--|

Rest

Chorus

   1 & 2 & 3 & 4 &
G|------------------| x4
D|------------------|
A|------------------|
E|-4-4-4-4-4-4-4-4--|

G|------------------| x3
D|------------------|
A|-4-4-4-4-4-4-4-4--|
E|------------------|

G|------------------|
D|-----------6-5-6--|
A|-4-4-4-4-4--------|
E|------------------|

Verse x2

   1 & 2 & 3 & 4 &
G|------------------| x4
D|---6-6-6----------|
A|-----------6-3----|
E|-4-------4-----4--|

G|------------------| x2
D|---------------5--|
A|---3-3-3-3-4-6----|
E|-4----------------|

G|------------------| x2
D|-------------3-6--|
A|---4-4-4-4-6------|
E|-4----------------|

Pre-Chorus

   1e&a2e&a3e&a4e&a
G|------------------|
D|-3---3---3---3--3-|
A|------------------|
E|------------------|

   1 & 2 & 3 & 4 &
G|------------------|
D|-----------8---8--|
A|-6---6---6---6----|
E|------------------|
	
G|------------------|
D|------------------|
A|------------------|
E|-6---6---6---6--6-|

G|------------------|
D|------------------|
A|-6---6---6---6----|
E|------------------|

   1 & 2 & 3 & 4 &
G|------------------|
D|-3-3-3-3-3-3-3-3--|
A|------------------|
E|------------------|

G|------------------|
D|-----------8------|
A|-6-6-6-6-6---6----|
E|------------------|

G|------------------|
D|------------------|
A|------------------|
E|-6-6-6-6-6-6-6-6--|

G|------------------|
D|------------------|
A|-6-6-6-6-6-6-6-6--|
E|------------------|

Rest

Chorus

   1 & 2 & 3 & 4 &
G|------------------| x4
D|------------------|
A|------------------|
E|-4-4-4-4-4-4-4-4--|

G|------------------| x3
D|------------------|
A|-4-4-4-4-4-4-4-4--|
E|------------------|

G|------------------|
D|-----------6-5-6--|
A|-4-4-4-4-4--------|
E|------------------|

Verse x2

   1 & 2 & 3 & 4 &
G|------------------| x4
D|---6-6-6----------|
A|-----------6-3----|
E|-4-------4-----4--|

G|------------------| x2
D|---------------5--|
A|---3-3-3-3-4-6----|
E|-4----------------|

G|------------------| x2
D|-------------3-6--|
A|---4-4-4-4-6------|
E|-4----------------|

Outro

   1e&a2e&a3e&a4e&a
G|------------------|
D|-3---3---3---3--3-|
A|------------------|
E|------------------|

   1 & 2 & 3 & 4 &
G|------------------|
D|-----------8---8--|
A|-6---6---6---6----|
E|------------------|
	
G|------------------|
D|------------------|
A|------------------|
E|-6---6---6---6--6-|

G|------------------|
D|------------------|
A|-6---6---6---6----|
E|------------------|

   1 & 2 & 3 & 4 &
G|------------------|
D|-3-3-3-3-3-3-3-3--|
A|------------------|
E|------------------|

G|------------------|
D|-----------8------|
A|-6-6-6-6-6---6----|
E|------------------|

G|------------------|
D|------------------|
A|------------------|
E|-6-6-6-6-6-6-6-6--|

G|------------------|
D|------------------|
A|-6-6-6-6-6-6-6-6--|
E|------------------|

G|------------------|
D|-3-3-3-3-3-3-3-3--|
A|------------------|
E|------------------|

G|------------------|
D|-----------8------|
A|-6-6-6-6-6---6----|
E|------------------|

G|------------------|
D|------------------|
A|------------------|
E|-6-6-6-6-6-6-6-6--|

G|------------------|
D|------------------|
A|-6-6-6-6-6-6-6-6--|
E|------------------|

Rest

G|------------------| x2 *Fade out
D|------------------|
A|------------------|
E|-4-4-4-4-4-4-4-4--|



Outros vídeos desta música
    391 exibições

    Afinação da cifra

    Afinador online

    0 comentários

    Ver todos os comentários

    Entre para o Cifra Club PRO

    Tenha acesso a benefícios exclusivos no App e no Site

    • Chega de anúncios

    • Badges exclusivas

    • Mais recursos no app do Afinador

    • Atendimento Prioritário

    • Aumente seu limite de lista

    • Ajude a produzir mais conteúdo

    Cifra Club Pro

    Aproveite o Cifra Club com benefícios exclusivos e sem anúncios
    Cifra Club Pro
    Aproveite o Cifra Club com benefícios exclusivos e sem anúncios
    Ops (: Contenido disponible sólo en portugués.
    OK