Cifra Club

James Bond Theme

Moby

Cifra: Principal (violão e guitarra)
tom: D
(riff 1) 
e---------------------------------------------------------------|
B---------------------------------------------------------------|
G---------------------------------------------------------------|
D---------------------------------------------------------------|
A---------------------------------------------------------------|
E-2-222-2--0-0-0-0--3-333-3--0-0-0-0--2-222-2--0-0-0-0--3-333-3-|
            | |
(3 following notes must be played fast)

e---------------------------------------------------------------|
B---------------------------------------------------------------|
G---------------------------------------------------------------|
D-----------------------------------1-0-------------------------|
A-----------------------------------------2-0-2-----------------|
E-2-222-2--0-0-0-0--3-333-3--1-1-0------------------------------|

(riff 2) with distortion
e---------------------------------------------------------------|
B---------------------------------------------------------------|
G-4-4---8-7---2-4----4-3----5-6---------------------------------|
D-4-4---8-7---2-4----5-4----6-7---------------------------------|
A-2-2---6-5---0-2----5-4----6-7---------------------------------|
E--------------------3-2----4-5---------------------------------|

(riff3) with distortion
e----------------------------------------------------------------|
B-----------------------------------------------------------12-12|
G-9----11-9-11--12----11-9-11--9----11-9-11--12----11-9-11--12-12|
D-9----11-9-11--12----11-9-11--9----11-9-11--12----11-9-11--10-10|
A-7-----9-9--9--10-----9-9--9--7-----9-9--9--10-----9-9--9-------|
E----------------------------------------------------------------|

(end on  with distortion)
e---------------------------------------------------------------|
B-12-12----12-12----12--12--------------------------------------|
G-12-12----12-12----12--12--------------------------------------|
D-10-10----10-10----10--10--------------------------------------|
A---------------------------------------------------------------|
E---------------------------------------------------------------|
00:00 / 00:00
Outros vídeos desta música
Repetir
Outros vídeos desta música
Composição de Moby
Colaboração e revisão:
  • Élison Duarte
1.121 exibições
    • ½ Tom
    • A
    • Bb
    • B
    • C
    • Db
    • D
    • Eb
    • E
    • F
    • F#
    • G
    • Ab
  • Adicionar à lista

    0 comentários

    Ver todos os comentários

    Conseguiu tocar?

    1 Tocaram 0 Ainda não

    Grave um vídeo tocando James Bond Theme e nos envie!

    Entre para oCifra Club PRO

    Tenha acesso a benefícios exclusivos no App e no Site

    • Chega de anúncios

    • Prioridade de compra em lançamentos

    • Mais recursos no app do Afinador

    • Atendimento Prioritário

    • Descontos nos produtos Cifra Club

    • Ajude a produzir mais conteúdo

    00:00 / 00:00

    Cifra Club Pro

    Aproveite o Cifra Club com benefícios exclusivos e sem anúncios
    Cifra Club Pro
    Aproveite o Cifra Club com benefícios exclusivos e sem anúncios
    OK