Cifra Club

Aprenda

Pacto entre los dos

Moderatto

Cifra: Principal (violão e guitarra)
tom: Em
Intro:

E|-/------------------------------------------------|
B|-/------------------------------------------------|
G|-/------------------------------------------------|
D|-/-----7---8---7---5-3-2-3-5-3-2------------------|
A|-/-5-5---5---5---5---------------3----------------|
E|-/------------------------------------------------|
                                                    *La 4ta cuerda
E|-/------------------------------------------------| siempre apagada
B|-/------------------------------------------------|
G|-/------------------------------------------------|
D|-/-----7---8---(7)-------5-3-2-3-5-3-2------------|
A|-/-5-5---5---5-------------------------3----------|
E|-/------------------------------------------------|

Mientra una guitarra toca este intro tres veces, al segundo entra
otra guitarra acompañando con quintas, estos:

D5 D5 - F5 F5 - C5 C5


Luego del intro sigue esto que acompaña casi toda la cancion:

A|-/-5-5-7-8---5-5-7-8---5-5-7-8---5-5-7-8----------| *Siempre las 2 1ras
                                                      nostas apagadas
A|-/-3-3-5-6---3-3-5-6---3-3-5-6---3-3-5-6----------|

NOTA: notaras k en algunas ocaciones suenta muy grave, si kieres k se
      scuche exacamente iwal tienes k afinar la 6ta cuerda(E) en D y
      sustituir    A-/-5-5-7-8   por  D-/-0-0-2-3 pero si no no hay
      problema , suena bn de las dos formas.


La ultima vez antes de empezar el coro entra esto:

A|-/-3-3-5-6---3-3-5-6---3-5^-3-6^-3-5^---|


En el coro se toca un pequeño arpegio:

(G)                Cm   C5  F5
E|-/-------3--3------3------------|
B|-/-----3------3----4------------|
G|-/---4-------------5----5-------|
D|-/-5---------------5----5--3----|
A|-/-----------------3----3--3----|
E|-/-----------------3-------1----|

Mientras la guitarra toca esto el bajo acompaña con esto:

A|-/-3-3-5-6---| X4 veces

E|-/-3-3-5-6---| X4 veces


casi al ultimo sigue un requinto que suena bien metal, y es
mas o menos asi:

A|-/-2-3-5-5-5---2-3-5-5-5--2-3-5-5-5----| *Si kieres k suene exactamente
                                           iwal k la cancion tienes k
A|-/---1----------1-------3/4-3-1--------| afinar la 5 cuerda en D y hacer
E|-/-3---3-1-3--3---3-1-3----------------| esto pero mas grave, d kualkier
                                           manera suena bn.

Ok, aki les dejo la pagina de un grupo muy bueno y original, pasen
y para recomendaciones o preguntas acerca del grupo escriban a
Ya, es todo, la letra de la cancion nada mas se acompaña con
la quinta cuerda, esta cancioncion esta bien chingona y va para
Pacheco, Omar, Christian, David, Jockey y por supuesto
a Tanairi(que me inspiro).
Composição de A. Diaz, Thalía
    • ½ Tom
    • Am
    • Bbm
    • Bm
    • Cm
    • C#m
    • Dm
    • Ebm
    • Em
    • Fm
    • F#m
    • Gm
    • G#m
  • Adicionar à lista

    0 comentários

    Ver todos os comentários

    Conseguiu tocar?

    0 Tocaram 0 Ainda não

    Grave um vídeo tocando Pacto entre los dos e nos envie!

    00:00 / 00:00
    Outros vídeos desta música
    Repetir Qualidade Automático
    Outros vídeos desta música
    00:00 / 00:00
    Automático

    Cifra Club Pro

    Aproveite o Cifra Club com benefícios exclusivos e sem anúncios
    Cifra Club Pro
    Aproveite o Cifra Club com benefícios exclusivos e sem anúncios
    OK