Cifra Club

Palabra de Honor

Moderatto

Cifra: Principal (violão e guitarra)
tom: Gm
Intro:

E|-/--------------------------------|
B|-/--------------------------------|
G|-/-5^7-5^7-5-3-5~--5-5^7~---------|
D|-/--------------------------------|
A|-/--------------------------------|
E|-/--------------------------------|

E|-/----------------------------------------------------------------|
B|-/-6-6/8p6--------------------------------------------------------|
G|-/------------7p5-3----3-5-3~----------3--------------------------|
D|-/---------------| ---5-----------5-3-5---5~--/3-4~--4-4/6-7-------
A|-/----------------------------------------------------------------|
E|-/----------------------------------------------------------------|

E|-/-------------------------------|
B|-/-------------------------------|
G|-/-5^7-5^7-5-3-5~--5-5^7~--------|
D|-/-------------------------------|
A|-/-------------------------------|
E|-/-------------------------------|

E|-/----------------------------------------------------------------|
B|-/-6-6/8p6--------------------------------------------------------|
G|-/------------7p5-3----3-5-(3)---------3--------------------------|
D|-/-------------------5-----------5-3-5---5~--/3-4~--4-4/6--8------|
A|-/----------------------------------------------------------------|
E|-/----------------------------------------------------------------|

E|-/---------------------------------------|
B|-/---------------------------------------|
G|-/---------------------------------------|
D|-/---8-------8-------8-------8-8-8-------|
A|-/-8---8---8---8---8---8---8-------------|
E|-/---------------------------------------|

E|-/-------1----------1-----------3----------1------------|
B|-/-----3----------1-----------3----------1--------------|
G|-/---3----------2-----------3----------2----------------|
D|-/-3----------3-----------5----------3------------------|
A|-/------------------------------------------------------|
E|-/------------------------------------------------------|

Sobres pues, solo corregi algunos errores del tab pasado,,,
si kieren scuchar un grupo chingon y de verdad pasen a sta pagina
saludos i cheken lo k les dije.
Composição de Luis Gómez Escolar
3 exibições
    • ½ Tom
    • Am
    • Bbm
    • Bm
    • Cm
    • C#m
    • Dm
    • Ebm
    • Em
    • Fm
    • F#m
    • Gm
    • G#m
  • Adicionar à lista

    0 comentários

    Ver todos os comentários

    Conseguiu tocar?

    0 Tocaram 0 Ainda não

    Grave um vídeo tocando Palabra de Honor e nos envie!

    00:00 / 00:00
    Outros vídeos desta música
    Repetir Qualidade Automático
    Outros vídeos desta música
    00:00 / 00:00
    Automático

    Cifra Club Pro

    Aproveite o Cifra Club com benefícios exclusivos e sem anúncios
    Cifra Club Pro
    Aproveite o Cifra Club com benefícios exclusivos e sem anúncios
    OK