Cifra Club

No dices más

Moenia

Cifra: Principal (violão e guitarra)
tom: Db
Intro:

E|-----------------|---------2-|-----------------|---------2--|
B|---------4-------|-------2---|-------4-4-------|-----2------|
G|-----6-----6---6-|-----3-----|-----6-----6---6-|------------|
D|---6---6-----6---|---4-------|---6---------6---|---4---4----|
A|-4---------------|-----------|-4---------------|------------|
E|-----------------|-2---------|-----------------|-2----------|

E|---------------|-------2-2-------|----------------|----------------|
B|------4-4------|-----2-----2-----|---------4------|---------4------|
G|----6-----6---6|-------------3---|-----6-----6---6|-----6-----6---6|
D|--6---------6--|---4-----------4-|---4---4-----4--|---4---4-----4--|
A|4--------------|-----------------|----------------|----------------|
E|---------------|-2-----------4-6-|-7--------------|-6-----------2-4|

E|----------------|----------------|----------------|
B|---------4------|---------4------|----------------|
G|-----6-----6---6|-----5-----5----|-6-------8------|
D|-------4-----4--|-------4--------|----------------|
A|---7------------|---6---------6/8|---9-8/9---9-8/9|
E|-5--------------|-4--------------|----------------|

Verso
Tras de la lluvia…
E|---------2------|----------------|----------------|-------4-4---4--|
B|-----2-----2---2|---------4------|---------6------|-----2-----2---2|
G|----------------|-----5-----5---5|-----6-----6---6|----------------|
D|---4---4-----4--|---6---6-----4--|---6---6-----6--|---4------------|
A|----------------|----------------|-4--------------|----------------|
E|-2--------------|-4--------------|----------------|-2--------------|

No se lo que paso…
E|---------2------|----------------|----------------|-------4-4---4--|
B|-----2-----2---2|---------4------|---------6------|-----2-----2---2|
G|----------------|-----5-----5---5|-----6-----6---6|----------------|
D|---4---4-----4--|---6---6-----4--|---6---6-----6--|---4------------|
A|----------------|----------------|-4--------------|----------------|
E|-2--------------|-4--------------|----------------|-2--------------|

Y es que tu…
E|---------2------|----------------|----------------|-------4-4---4--|
B|-----2-----2---2|---------4------|---------6------|-----2-----2---2|
G|----------------|-----5-----5---5|-----6-----6---6|----------------|
D|---4---4-----4--|---6---6-----4--|---6---6-----6--|---4------------|
A|----------------|----------------|-4--------------|----------------|
E|-2--------------|-4--------------|----------------|-2--------------|

Y sin saber…
E|---------2------|----------------|----------------|-------4-4---4--|
B|-----2-----2---2|---------4------|---------6------|-----2-----2---2|
G|----------------|-----5-----5---5|-----6-----6---6|----------------|
D|---4---4-----4--|---6---6-----4--|---6---6-----6--|---4------------|
A|----------------|----------------|-4--------------|----------------|
E|-2--------------|-4--------------|----------------|-2--------------|

Tanto pensar en ti….
E|---------2---4--|----------------|----------------|-------4-4---4--|
B|-----2-----2---2|---------4------|---------6------|-----2-----2---2|
G|----------------|-----5-----5---5|-----6-----6---6|----------------|
D|---4---4--------|---6---6-----4--|---6---6-----6--|---4------------|
A|----------------|----------------|-4--------------|----------------|
E|-2--------------|-4--------------|----------------|-2--------------|

Me cuesta mucho…
E|---------2------|----------------|----------------|-------4-4---4--|
B|-----2-----2---2|---------4------|---------6------|-----2-----2---2|
G|----------------|-----5-----5---5|-----6-----6---6|----------------|
D|---4---4-----4--|---6---6-----4--|---6---6-----6--|---4------------|
A|----------------|----------------|-4--------------|----------------|
E|-2--------------|-4--------------|----------------|-2--------------|

Y es que yo…
E|---------2------|----------------|----------------|-------4-4---4--|
B|-----2-----2---2|---------4------|---------6------|-----2-----2---2|
G|----------------|-----5-----5---5|-----6-----6---6|----------------|
D|---4---4-----4--|---6---6-----4--|---6---6-----6--|---4------------|
A|----------------|----------------|-4--------------|----------------|
E|-2--------------|-4--------------|----------------|-2--------------|

Ya no no me importa…
E|---------2------|----------------|----------------|-------4-4---4--|
B|-----2-----2---2|---------4------|---------6------|-----2-----2---2|
G|----------------|-----5-----5---5|-----6-----6---6|----------------|
D|---4---4-----4--|---6---6-----4--|---6---6-----6--|---4------------|
A|----------------|----------------|-4--------------|----------------|
E|-2--------------|-4--------------|----------------|-2--------------|

Coro:

Solamente tu…
  Gb              Ab               Db                Absus
E|--------2------|----------------|-----------------|---------4------|
B|----2-----2---2|---------6------|----------6------|-----------7-6-4|
G|---------------|-----5-----5---5|------5-----5---5|-----5----------|
D|--4---4-----4--|---6---6-----6--|----6---6-----6--|----------------|
A|---------------|----------------|-4---------------|-4/6---6--------|
E|2--------------|-4--------------|-6---------------|----------------|

Dos palabras…
  Gb              Ab               Db                Db
E|--------2------|----------------|-----------------|---------4------|
B|----2-----2---2|---------6------|----------6------|-----------7-6-4|
G|---------------|-----5-----5---5|------5-----5---5|-----5----------|
D|--4---4-----4--|---6---6-----6--|----6---6-----6--|----------------|
A|---------------|----------------|-4---------------|-4/6---6--------|
E|2--------------|-4--------------|-6---------------|----------------|

Te podría esperar…
  Gb              Ab               Db                Absus
E|--------2------|----------------|-----------------|---------4------|
B|----2-----2---2|---------6------|----------6------|-----------7-6-4|
G|---------------|-----5-----5---5|------5-----5---5|-----5----------|
D|--4---4-----4--|---6---6-----6--|----6---6-----6--|----------------|
A|---------------|----------------|-4---------------|-4/6---6--------|
E|2--------------|-4--------------|-6---------------|----------------|

Mas…
  Gb              Ab
E|--------2------|----------------|
B|----2-----2---2|---------6------|
G|---------------|-----5-----5---5|
D|--4---4-----4--|---6---6-----6--|
A|---------------|----------------|
E|2--------------|-4--------------|

Final:
E|----------------|----------------|----------------|
B|---------4------|---------4------|---------4------|
G|-----6-----6---6|-----6-----6---6|-----6-----6---6|
D|---4---4-----4--|---4---4-----4--|-------4-----4--|
A|----------------|----------------|---7------------|
E|-7--------------|-6-----------2-4|-5--------------|

E|----------------|----------------|------|
B|---------4------|----------------|------|
G|-----5-----5----|-6-------8------|-3~~--|
D|-------4--------|----------------|-4~~--|
A|---6---------6/8|---9-8/9---9-8/9|-4~~--|
E|-4--------------|----------------|-2~~--|

Ok ahora de q se trata… checate que en
la mayoría de la canción se repiten las notas
ok ya lo notaste… arriba de la tab solo viene
un pedacito de la canción para que no te pierdas
No te iba a poner toda la letra!
ahora los acordes q te pongo en el coro no
presisamente son los reales, jeje solo se le parecen
pero son estos:
   Gb  Ab  Db  Absus
E|-------------------|
B|---------6---------|
G|-3---5---6---6-----|
D|-4---6---6---6-----|
A|-4---6---4---6-----|
E|-2---4---6---------|

Ok tu dale tu estilo en el rasgueo y se oirá
muy bien… solo escucha atentamente la canción
y veraz que todo debe coincidir.
AH!! y los acordes tambien puedes
usar los acordes que vienen en la transcripcion
de la cancion original eh
Ok kiero ese 10!!!!
NOTA: Ten cuidado porque en los versos hay
una parte que cambia ligeramente!
00:00 / 00:00
Outros vídeos desta música
Repetir
Outros vídeos desta música
Composição de Alfonso Pichardo / Jorge Soto
17 exibições
    • ½ Tom
    • A
    • Bb
    • B
    • C
    • Db
    • D
    • Eb
    • E
    • F
    • F#
    • G
    • Ab
  • Adicionar à lista

    0 comentários

    Ver todos os comentários

    Conseguiu tocar?

    0 Tocaram 0 Ainda não

    Grave um vídeo tocando No dices más e nos envie!

    00:00 / 00:00

    Cifra Club Pro

    Aproveite o Cifra Club com benefícios exclusivos e sem anúncios
    Cifra Club Pro
    Aproveite o Cifra Club com benefícios exclusivos e sem anúncios
    OK