Cifra Club

Saturday's Child

The Monkees

Cifra: Principal (violão e guitarra)
Selo Cifra Club: esta cifra foi revisada para atender aos critérios oficiais da nossa Equipe de Qualidade.
tom: E
[tab - riff]

E|----------------------------------5-3-2-0----0------|
B|----------------------3------1-------------3--------|
G|------------------------0-2-------------------------|
D|----2-----0---------0-------------------------------|
A|------0-2-------------------------------------------|
E|--0-------------------------------------------------|

E|----------------------------------5-3-2-0----0------|
B|----------------------3------1-------------3--------|
G|------------------------0-2-------------------------|
D|----2-----0---------0-------------------------------|
A|------0-2-------------------------------------------|
E|--0-------------------------------------------------|

E
Monday had a sad child
D
Always feeling low down
E
Tuesday had a dream child
D
She's always on the go
D                                 E
So, i'm in love with saturday's child

E
Every time you take her out at night
               G#m
(she drives me wild)
G#m
You want to kiss and hold her way up tight
                 A
(gonna spend my time)
A
You can tell the future's looking bright
                   B
(making sure that saturday's child is mine.)

E 
If you love a wednesday
D
You live your life apart, now
    E
And if you love a thursday
D
She's gonna break your heart
D                                 E
So, i'm in love with saturday's child

E
Every time you hold her close you'll see
               G#m
(she drives me wild)
G#m
You can feel the thrill that's gonna be
                 A
(gonna spend my time)
 A
Now the future has a guarantee
                   B
(making sure that saturday's child is mine.)

[tab - riff]

E|----------------------------------5-3-2-0----0------|
B|----------------------3------1-------------3--------|
G|------------------------0-2-------------------------|
D|----2-----0---------0-------------------------------|
A|------0-2-------------------------------------------|
E|--0-------------------------------------------------|

E|----------------------------------5-3-2-0----0------|
B|----------------------3------1-------------3--------|
G|------------------------0-2-------------------------|
D|----2-----0---------0-------------------------------|
A|------0-2-------------------------------------------|
E|--0-------------------------------------------------|

E     G#m          E             G#m
Seven days of the week made to choose from
E        G#m     E         B
But only one is right for me
  D          E          D           E
I know that saturday's got what it takes, babe
  D                E                   F#
I can tell by the waaaay she looks at me

[tab - riff]

E|----------------------------------5-3-2-0----0------|
B|----------------------3------1-------------3--------|
G|------------------------0-2-------------------------|
D|----2-----0---------0-------------------------------|
A|------0-2-------------------------------------------|
E|--0-------------------------------------------------|

E|----------------------------------5-3-2-0----0------|
B|----------------------3------1-------------3--------|
G|------------------------0-2-------------------------|
D|----2-----0---------0-------------------------------|
A|------0-2-------------------------------------------|
E|--0-------------------------------------------------|

E
Friday likes the good life
D
She'll take you for a ride, now
    E
And sunday makes a good wife
D
She wants to be your bride
D                                 E
So, i'm in love with saturday's child

E
Every time you take her out at night
               G#m
(she drives me wild)
G#m
You want to kiss and hold her way up tight
                 A
(gonna spend my time)
A
You can tell the future's looking bright
                   B
(making sure that saturday's child is mine.)
Outros vídeos desta música
    43 exibições
      • ½ Tom
      • A
      • Bb
      • B
      • C
      • Db
      • D
      • Eb
      • E
      • F
      • F#
      • G
      • Ab
    • Adicionar à lista

    Afinação da cifra

    Afinador online

      0 comentários

      Ver todos os comentários

      Entre para o Cifra Club PRO

      Tenha acesso a benefícios exclusivos no App e no Site

      • Chega de anúncios

      • Mais recursos no app do Afinador

      • Atendimento Prioritário

      • Aumente seu limite de lista

      • Ajude a produzir mais conteúdo

      Cifra Club Pro

      Aproveite o Cifra Club com benefícios exclusivos e sem anúncios
      Cifra Club Pro
      Aproveite o Cifra Club com benefícios exclusivos e sem anúncios
      OK