Cifra Club

Aprenda

Found Found Found

Morrissey

Tab de baixo: Principal
Part A
G |--------------------------------|--------------------------------|
D |--------------------------------|--------------------------------|
A |-0---0---0---0---0---0---0---0--|-0---0---0---0---0---0---0---1--|
E |--------------------------------|--------------------------------|

Part B
G |--------------------------------|--------------------------------|
D |--------------------------------|--------------------------------|
A |-2-----2-2-----2-2\9-----9------|-2-----2-2-----2-2--------------|
E |--------------------------------|-------------------2--(2)2-2-2--|

Part A
G |--------------------------------|--------------------------------|
D |--------------------------------|--------------------------------|
A |-0---0---0---0---0---0---0---0--|\12--12--12--12--12--12--12--12-|
E |--------------------------------|--------------------------------|

Order:
[00:00] Part A
[00:05] Part B 8x
[00:51] Part A
[00:57] Part B 8x
[01:43] Part C
[01:48] Part B 1x
yEnd with an high B
 
Composição de Clive Langer
220 exibições

0 comentários

Ver todos os comentários

Conseguiu tocar?

0 Tocaram 0 Ainda não

Grave um vídeo tocando Found Found Found e nos envie!

00:00 / 00:00
outros vídeos desta música
repetir qualidade Automático
Outros vídeos desta música
00:00 / 00:00
Automático

Cifra Club Pro

Aproveite o Cifra Club com benefícios exclusivos e sem anúncios
Cifra Club Pro
Aproveite o Cifra Club com benefícios exclusivos e sem anúncios
OK