Cifra Club

Aprenda

Turkish March

Wolfgang Amadeus Mozart

Cifra: Principal (violão e guitarra)
Já pensou em usar uma coleção de roupas do Cifra Club? Responda as perguntas abaixo e nos ajude nessa missão! →
tom: A
I used sheet music to figure much of it out, so if you are able to play some of
this...GIVE ME LESSONS!!!
Otherwise, just play the melody and have someone else play the bass.
Here's how the first part goes:
part one, two, one, two, three, one, four, three, one, four, five.
Enjoy, and God bless :)

-|------------------------------12----------------19-17-16-17-19-17-16-17-20-|
-|12----------13----15-13-12-13-------18-17-15-17----------------------------|
-|---14-13-14----------------------------------------------------------------|
-|---------------------------------------------------------------------------|
-|---------------------------------------------------------------------------|
-|---------------------------------------------------------------------------|
  part one

-|17-20-17/19--17-15-17---17/19--17-15-17---17/19--17-15-14-15---------------|
-|-------------19-17-19----------19-17-19----------19-17-16-17---------------|
-|---------------------------------------------------------------------------|
-|---------------------------------------------------------------------------|
-|---------------------------------------------------------------------------|
-|---------------------------------------------------------------------------|
 part two

-|------15-15-17-15----------------------15-15-17-15--------------------------|
-|17-18-17-17-------18-17-15-------17-18-17-17-------18-17-15-----------------|
-|17-19-------------------16-------17-19-------------------16-----------------|
-|----------------------------------------------------------------------------|
-|----------------------------------------------------------------------------|
-|----------------------------------------------------------------------------|
 part three

--------12-12-13-12----------------------12-12-13-12-------------------------|
--13-15-13-13-------15-13-12-------13-15-13-13-------15-13-12----------------|
--14-16-------------------13-------14-16-------------------13----------------|
-----------------------------------------------------------------------------|
-----------------------------------------------------------------------------|
-----------------------------------------------------------------------------|


-|17--19--20--19--17--16--17-------------------------------------------------|
-|----------------------------17--18--15--13---12h13p12-12h13p12-------------|
-|---------------------------------------------------------------14----------|
-|---------------------------------------------------------------------------|
-|---------------------------------------------------------------------------|
-|---------------------------------------------------------------------------|
 part four

-|--------9--------------9----------------------------------------------------|
-|10--12---------10--12--------12--10--9-------9---10--12--9------------------|
-|-----------------------------------------11------------------9--------------|
-|----9---11---------9---11----9-----------------------9----------------------|
-|12-------------12----------------12--11--9---11--12------11-----------------|
-|-------------------------------------------------------------12-------------|
 part five

----------9--------------9---------------------------------------------------|
--10--12---------10--12--------12--10--9-------12--9-------10----------------|
-------------------------------------------11----------9---------------------|
------9---11---------9---11----9---------------9-----------------------------|
--12-------------12----------------12--11--9-------11------12----------------|
-------------------------------------------------------12--------------------|

part six

-|9-10-9-7-----7-------------------------------------------------------7-9-7-9-7-
-|---------10----10-9-7---10-9-7-----9----6-7-9-10-9-10-9-7-9-10-9-10------------
-|-------------------------------10-----6----------------------------------------
-|-------------------------------------------------------------------------------
-|-------------------------------------------------------------------------------

-|9-10-9-7----7-----------------------------------------------------------------|
-|---------10---10-9-7---10-9-7------9-----6-7-9-10-9-10-9-7-6-9-7-6-9-7--------|
-|-------------------------------10-----6---------------------------------------|
-|------------------------------------------------------------------------------|
-|------------------------------------------------------------------------------|
Compositor não encontrado.
Colaboração e revisão:
  • Tiago Felipe
22.785 exibições
    • ½ Tom
    • A
    • Bb
    • B
    • C
    • Db
    • D
    • Eb
    • E
    • F
    • F#
    • G
    • Ab
  • Adicionar à lista

    0 comentários

    Ver todos os comentários

    Conseguiu tocar?

    3 Tocaram 1 Ainda não

    Grave um vídeo tocando Turkish March e nos envie!

    00:00 / 00:00
    Outros vídeos desta música
    Repetir Qualidade Automático
    Outros vídeos desta música
    00:00 / 00:00
    Automático

    Cifra Club Pro

    Aproveite o Cifra Club com benefícios exclusivos e sem anúncios
    Cifra Club Pro
    Aproveite o Cifra Club com benefícios exclusivos e sem anúncios
    OK