Notificações Amigos pendentes

      Mudvayne

      On The Move

      319 exibições
      Tom: D
      This song im not so sure about. its not 100% but this
      song hasnt been tabbed yet so here is my shot at it
      
      Intro
      
      
      |-----------------------------|
      |-----------------------------|
      |-----------------------------|
      |-----------------------------|
      |-3-4-3-4-0-00-3-4-5-0-4-3-00-|
      |-3-4-3-4-0-00-3-4-5-0-4-3-00-|
      
      
      Verse 1
      
      
      |--------------------|
      |--------------------|
      |-5-5-5-----5-5-5----|
      |-X-X-X-----X-X-X----|
      |-3-3-3--0--3-3-3--0-|
      |--------0---------0-|
      
      
      |-----------------------------------------------------------|
      |-----------------------------------------------------------|
      |-------5--5-5-5-----5-5-5------------4--5-5-5-----5-5-5----|
      |-------X--X-X-X-----X-X-X------------X--X-X-X-----X-X-X----|
      |-000-0-3--3-3-3--0--3-3-3-0------000-2--3-3-3--0--3-3-3--0-|
      |-000-0-----------0--------0------000-----------0---------0-|
      
      
      Verse 2
      
      
      |--------------------|
      |--------------------|
      |-5-5-5-----5-5-5----|
      |-X-X-X-----X-X-X----|
      |-3-3-3--0--3-3-3--0-|
      |--------0---------0-|
      
      
      |-----------------------------------------------------------------------|
      |-----------------------------------------------------------------------|
      |------------------5-5-5-----5-5-5-------------------5-5-5-----5-5-5----|
      |------------------X-X-X-----X-X-X-------------------X-X-X-----X-X-X----|
      |-00-00-00-000-00--3-3-3--0--3-3-3--00-00-00-000-00--3-3-3--0--3-3-3--0-|
      |-00-00-00-000-00---------0---------00-00-00-000-00---------0---------0-|
      
      
      Verse 3
      
      
      |----------------------------------------------------------------------------|
      |----------------------------------------------------------------------------|
      |-5-5-5-----5-5-5----------9-------9----5-5-5-----5-5-5----------9-------9---|
      |-X-X-X-----X-X-X----------X-------X----X-X-X-----X-X-X----------X-------X---|
      |-3-3-3--0--3-3-3--0--000--7--000--7-0--3-3-3--0--3-3-3--0--000--7--000--7-0-|
      |--------0---------0--000-----000----0---------0---------0--000-----000----0-|
      
      
      Chorus
      
      
      |-------|-----------------------------------------|
      |-------|-----------------------------------------|
      |-------|-----------------------------------------|
      |10-(64)|-----------------------------------------|
      |7------|-3-4H5P4-0-0-3-4H5P4-3-4H5P4-0-0-3-4H5P4-|
      |7------|-3-4H5P4-0-0-3-4H5P4-3-4H5P4-0-0-3-4H5P4-|
      
      
              |-----------------------------------------|
              |-----------------------------------------|
              |-----------------------------------------|
              |-----------------------------------------|
              |-3-54--3-54--0--3-54--3-54-3-54--0--3-54-|
              |-3-54--3-54--0--3-54--3-54-3-54--0--3-54-|
      
      
      Breakdown
      
      
      |------------------------------------------------------------------|
      |------------------------------------------------------------------|
      |------------------------------------------------------------------|
      |----10-----10-------10-------10--------9-----9-------9-------9----|
      |-7------7------7-7------7-7------7--6-----6-----6-6-----6-6-----6-|
      |------------------------------------------------------------------|
      
      
      |--------------------------------|
      |--------------------------------|
      |--------------------------------|
      |--------------------------------|
      |-444-44-454-453--333-33-343-342-|
      |-444-44-454-453--333-33-343-342-|
      
      

      Comentários 1

      140 .
      140 cancelar

      conseguiu tocar?

      covers

      Grave um vídeo tocando On The Move e mande pra gente!

      Ex.: http://www.youtube.com/watch?v=0IvSvIwGdwk
      ver covers de outras músicas »
      0:00 / 0:00

      Capítulos

        1 versão de violão dificuldade exibições contribuição e correção
        1 versão de guitarra dificuldade exibições contribuição e correção
        1 versão de cavaco dificuldade exibições contribuição e correção
        1 versão de teclado dificuldade exibições contribuição e correção
        1 versão de baixo exibições contribuição e correção
        play/pausefechar subir/descer velocidade
        6ª corda E5ª corda A4ª corda D3ª corda G2ª corda B1ª corda E
          acordes
          publicidade
          fechar
          ok