Cifra Club

Aprenda

0305030

Muse

Cifra: Principal (violão e guitarra)
Já pensou em usar uma coleção de roupas do Cifra Club? Responda as perguntas abaixo e nos ajude nessa missão! →
tom: Dm
E|-------------------------------------------|
B|-------------------------------------------|
G|-------------------------------------------|
D|-----------------------------4-------------|
A|-----------------------------4-------------|
D|0-10-12-0-10-8-0-8-7-0-7-5-7-4-------------| 2x

E|-------------------------------------------|
B|-------------------------------------------|
G|-------------------------------------------|
D|0-7-8-0-7-4--------------------------------|
A|0-7-8-0-7-4--------------------------------|
D|0-7-8-0-7-4--------------------------------| 2x

tocar abafado, menos na quarta casa

E|-------------------------------------------|
B|-------------------------------------------|
G|-------------------------------------------|
D|0-7-8-0-7-5-0-8-7-0-7-4--------------------|
A|0-7-8-0-7-5-0-8-7-0-7-4--------------------|
D|0-7-8-0-7-5-0-8-7-0-7-4--------------------|

tocar abafado, menos na quarta casa
Composição de Matthew Bellamy
Colaboração e revisão:
  • Daniel
723 exibições
    • ½ Tom
    • Am
    • Bbm
    • Bm
    • Cm
    • C#m
    • Dm
    • Ebm
    • Em
    • Fm
    • F#m
    • Gm
    • G#m
  • Adicionar à lista

    0 comentários

    Ver todos os comentários
    00:00 / 00:00
    Outros vídeos desta música
    Repetir Qualidade Automático
    Outros vídeos desta música
    00:00 / 00:00
    Automático

    Cifra Club Pro

    Aproveite o Cifra Club com benefícios exclusivos e sem anúncios
    Cifra Club Pro
    Aproveite o Cifra Club com benefícios exclusivos e sem anúncios
    OK